PrimaNota.ru - самый крупный в мире бесплатный архив песенных текстов, аккордов, табулатур и нот


Behemoth - Moonspell Rites - таба, бас-таба, видео

Регистрация Запомнить меня
Войти через:  Facebook Google Twitter Vk Yandex Mail.ru

Behemoth - Moonspell Rites - таба, бас-таба, видео

Печатать
Просмотров: 246
Artist: Behemoth
Album: AND THE FORESTS DREAM ETERNALLY (1994 EP)
Song: Moonspell Rites
Tabbed by: Uferlos  
Email: dex_chilango@hotmail.com

This is my first tab, but i think this tab is fine :P, if u have any correction
or just a simple judgement
send it to me please. This is the only tab of this song, just remember that
Uferlos tabbed it ;) Enjoy it

Intro:
E----------------------------------------------------------------------|
B---------------------------------------------------1------0-----------|
G------------------------------------------------0---------------------|
D-2--4h5-4------2---4h5-4--2-----2--4h5-4----------------------5--4--2-|
A-2--------5~~~-2------------3---2--------5---3---------2------5--4--2-|
E-0-------------0----------------0-----------------------------3--2--0-|


E--------------------------------------------------------------------\
B-------------------------------------------------------------------  \
G-------------------------------------------------------------------   \
D--2----------------------------------------------------------------    \
A--2----------------------------------------------------------------     \
E--0----------------------------------------------------------------      \
							           >x2
E-------------------------------------------------------------------      /
B-----------------------------------------------1---0---------------     /
G---------------------------------------------0---------------------    /
D--2--4h5-4------2--4h5-4--2----2--4h5-4----------------5--4--2-----   /
A--2--------5~~~-2-----------3--2--------5--3-----2-----5--4--2-----  /
E--0-------------0--------------0-----------------------3--2--0----- /

E-------------------------------------------------------------------\
B------------------------------------------------------------------- \
G----------------------------------------5-----4--------------------  \
D--2-----------2-------------2-----------5-----4----5--4--2---------   \
A--2-----------2-------------2-----------3-----2----5--4--2---------    \
E--0-----------0-------------0----------------------3--2--0---------     \
							          >x2
E-------------------------------------------------------------------     /
B--------------------------------------------1---0------------------    /
G------------------------------------------0------------------------   /
D--2--4h5-4----2--4h5-4-2----2--4h5-4---------------5--4--2---------  /
A--2--------5~-2----------3--2--------5--3-----2----5--4--2--------- /
E--0-----------0-------------0----------------------3--2--0---------/
		
E-------------------------------------------------------------------\
B--------------------------------------------1---0------------------ \
G---------------4-2------------------------0------------------------  \
D-----4h5-4---2~~~---5-4-----2~-4h5-4---------------5--4--2---------   \
A-----------5------------5------------5--3-----2----5--4--2---------    \
E--0------------------------------------------------3--2--0---------     \
								 >x2
E-------------------------------------------------------------------     /
B--------------------------------------------0---0------------------    /
G------------------------------------------0------------------------   /
D-----4h5-4-------4h5-4-2-------4h5-4---------------5--4--2---------  /
A-----------5~~~----------3-----------5--3-----2----5--4--2--------- /
E--0-----------0-------------0----------------------3--2--0---------/


E-------------------------------------------------------------------\
B------------------------------------------------------------------- \
G----------------------------------------5-----4--------------------  \
D--2-----------2-------------2-----------5-----4----5--4--2---------   \
A--2-----------2-------------2-----------3-----2----5--4--2---------    \
E--0-----------0-------------0----------------------3--2--0---------     \
								 >x2
E-------------------------------------------------------------------     /
B--------------------------------------------1---0------------------    /
G------------------------------------------0------------------------   /
D--2--4h5-4----2--4h5-4-2----2--4h5-4---------------5--4--2---------  /
A--2--------5~-2----------3--2--------5--3-----2----5--4--2--------- /
E--0-----------0-------------0----------------------3--2--0---------/

E----------(12)-------
B-----(12)------------
G---------------------
D---------------------
A---------------------
E---------------------

E----------------------------------------------------------------------------|
B----------------------------------------------------------------------------|
G---------------------2--------2---------------------------2--------2--------|x4
D--2--------2---------2--------2--------2--------2---------2--------2--------|
A--2--------2---------3--3-3-3-3--3-----2--------2---------3--3-3-3-3-3------|
E--0--0-0-0-0--0-0-0----------------3-2-0--0-0-0-0--0-0-0---------------3-2--|

E----------------------------------------------------------------------------|
B----------------------------------------------------------------------------|
G--------------------7---------7----------------------------9---------10-9-7-|
D-3---------3--------7---------7---------5---------5--------9---------10-9-7-|2
A-3---------3--------5-5-5-5-5-5-5-5-5-5-5---------5--------7-7-7-7-7-8--7-5-|
E-1-1-1-1-1-1-1-1-1-1--------------------3-3-3-3-3-3-3-3-3-3-----------------|

E----------------------------------------------------------------------------|
B----------------------------------------------------------------------------|
G--5----4------------------------------------------5----4--------------------|
D--5----4--5--2--------2--------2--------2---------5----4--5-----------------|
A--3----2--5--2--------2--------2--------2---------3----2--5-----------------|
E----------3--0--0-0-0-0--0-0-0-0--0-0-0-0--0-0-0----------3-----------------|

E-------------------------------------------------------------------------------|
B-------------------------------------------------------------------------------|
G-------------------------------------------------------------------------------|
D-2--------2--------2--------------------2--------2--------2--------------------|
A-2--------2--------2--------5-3-2-3-2---2--------2--------2--------5-3-2-3-2---|
E-0--0-0-0-0--0-0-0-0--0-0-0-----------3-0--0-0-0-0--0-0-0-0--0-0-0-----------3-|

E----------------------------------------------------------------------------|
B----------------------------------------------------------------------------|
G---------------------2--------2---------------------------2--------2--------|4
D--2--------2---------2--------2--------2--------2---------2--------2--------|
A--2--------2---------3--3-3-3-3--3-----2--------2---------3--3-3-3-3-3------|
E--0--0-0-0-0--0-0-0----------------3-2-0--0-0-0-0--0-0-0---------------3-2--|

E----------------------------------------------------------------------------|
B----------------------------------------------------------------------------|
G--------------------7---------7----------------------------9---------10-9-7-|
D-3---------3--------7---------7---------5---------5--------9---------10-9-7-|x2
A-3---------3--------5-5-5-5-5-5-5-5-5-5-5---------5--------7-7-7-7-7-8--7-5-|
E-1-1-1-1-1-1-1-1-1-1--------------------3-3-3-3-3-3-3-3-3-3-----------------|

E----------------------------------------------------------------------------|
B----------------------------------------------------------------------------|
G--5----4--------------------------------------------5----4------------------|
D--5----4--5--2--------2--------2--------------------5----4--5---------------|
A--3----2--5--2--------2--------2--------4-3-2-3-2---3----2--5---------------|
E----------3--0--0-0-0-0--0-0-0-0--0-0-0-----------3---------3---------------|

E-------------------------------------------------------------------------------|
B-------------------------------------------------------------------------------|
G-------------------------------------------------------------------------------|
D-2--------2--------2--------------------2--------2--------2--------------------|
A-2--------2--------2--------5-3-2-3-2---2--------2--------2--------5-3-2-3-2---|
E-0--0-0-0-0--0-0-0-0--0-0-0-----------3-0--0-0-0-0--0-0-0-0--0-0-0-----------3-|

Solo…
E----------------------------------------------------------------------------12-|
B-----12--13--10------12--13--17-----15-13-12-13-12----12-----------------------|
G--9---------------9--------------9~----------------14----14-12-14-12-10-9~-----|
D-------------------------------------------------------------------------------|
A-------------------------------------------------------------------------------|
E-------------------------------------------------------------------------------|

E--12--15-13-12-13-12--12-------------------------------------------------------|
B--------------------15--15-13-15-13-12-12-----12-----13-----13-----15-----15---|
G---------------------------------------14/16--14/16--15/17--15/17--17/19--17/19|
D-------------------------------------------------------------------------------|
A-------------------------------------------------------------------------------|
E-------------------------------------------------------------------------------|

	faster
E----------------------------------------------------------------------------|
B----------------------------------------------------------------------------|
G--11-12-11-12-11-14-11-12-11-12-11-14-11-12-11-12-11-14-11-12-11-12-11-14---|x4
D----------------------------------------------------------------------------|
A----------------------------------------------------------------------------|
E----------------------------------------------------------------------------|
		(may be)
Then…
E----------------------------------------------------------------------------|
B----------------------------------------------------------------------------|
G—11-12-11-12-11-12-11-12-11-14-11-12-11-14-11-12-11-14-11-12-11-14----------|x4
D----------------------------------------------------------------------------|
A----------------------------------------------------------------------------|
E----------------------------------------------------------------------------|
		(may be)

E--------------------------------------------------------------------12~~~---|
B----------------------------------------------------------------------------|
G--11-12-11-12-11-14/16-16-16-16-16-16-16-16-14-14-14-14--12—9~~~~-----------|
D----------------------------------------------------------------------------|
A----------------------------------------------------------------------------|
E----------------------------------------------------------------------------|

E-----------------12-13-12--12-----------------------------------------------|
B--12~~~-12-13-15---------15--15-13-15-13-12~----13-12-10--10----------13--12|
G--------------------------------------------------------12----12-11-12------|
D----------------------------------------------------------------------------|
A----------------------------------------------------------------------------|
E----------------------------------------------------------------------------|

E-------------------------------------------------------------12--------------|
B--12-13-15-12-13-15-12-13-15-12-13-15-12-13-15-12-13-15/17---15/17-----------|
G-----------------------------------------------------------------------------|
D-----------------------------------------------------------------------------|
A-----------------------------------------------------------------------------|
E-----------------------------------------------------------------------------|

E------------------------------------------------------------15--13-12-13-13----|
B-13-12-13-12---------------------------------------12-13-15--------------16/18-|
G-------------14-12-14-12-10-9-10-7-9-10-9-10-12-14-----------------------------|
D-------------------------------------------------------------------------------|
A-------------------------------------------------------------------------------|
E-------------------------------------------------------------------------------|
End solo…

The 2nd guitar plays:


E----------------------------------------------------------------------------|
B----------------------------------------------------------------------------|
G---------------------2--------2---------------------------2--------2--------|x4
D--2--------2---------2--------2--------2--------2---------2--------2--------|
A--2--------2---------3--3-3-3-3--3-----2--------2---------3--3-3-3-3-3------|
E--0--0-0-0-0--0-0-0----------------3-2-0--0-0-0-0--0-0-0---------------3-2--|

E----------------------------------------------------------------------------|
B----------------------------------------------------------------------------|
G--------------------7---------7----------------------------9---------10-9-7-|
D-3---------3--------7---------7---------5---------5--------9---------10-9-7-| x2
A-3---------3--------5-5-5-5-5-5-5-5-5-5-5---------5--------7-7-7-7-7-8--7-5-|
E-1-1-1-1-1-1-1-1-1-1--------------------3-3-3-3-3-3-3-3-3-3-----------------|
End solo…

E----------------------------------------------------------------------------|
B----------------------------------------------------------------------------|
G--5----4--------------------------------------------5----4------------------|
D--5----4--5--2--------2--------2--------------------5----4--5---------------|
A--3----2--5--2--------2--------2--------4-3-2-3-2---3----2--5---------------|
E----------3--0--0-0-0-0--0-0-0-0--0-0-0-----------3---------3---------------|

E-------------------------------------------------------------------------------|
B-------------------------------------------------------------------------------|
G-------------------------------------------------------------------------------|
D-2--------2--------2--------------------2--------2--------2--------------------|
A-2--------2--------2--------5-3-2-3-2---2--------2--------2--------5-3-2-3-2---|
E-0--0-0-0-0--0-0-0-0--0-0-0-----------3-0--0-0-0-0--0-0-0-0--0-0-0-----------3-|

E--------|
B--------|
G--------|
D---2----|
A---2----|
E---0----|

E----------------------------------------------------|
B----------------------------------------------------|
G----------------------------------------------------|   x4
D---2----2----2----4-4--2----2----2----3-3-----------|
A---2----2----2----4-4--2----2----2----3-3-----------|
E---0--0-0--0-0--0-2-2--0--0-0--0-0-0--1-1-----------|

E-----------------|
B-----------------|
G-----------------|
D---2-------------|
A---2-------------|
E---0-------------|
The end :p

| /  slide up
| \  slide down
| h  hammer-on
| p  pull-off
| ~  vibrato
| +  harmonic
| x  Mute note
Добавлено: 09.03.2012
Другие материалы по этой песне:

Страница создана 09.03.2012
http://primanota.ru/behemoth/moonspell-rites-chords.htm
Привет, Гость.
Предлагаем пройти революционный курс по гитаре.
Подарок от PrimaNota.Ru, забирай!