PrimaNota.ru - самый крупный в мире бесплатный архив песенных текстов, аккордов, табулатур и нот


Bass Drum Of Death - Faces Of The Wind - таба, видео

Регистрация Запомнить меня
Войти через:  Facebook Google Twitter Vk Yandex Mail.ru

Bass Drum Of Death - Faces Of The Wind - таба, видео

Печатать
Просмотров: 100
Probably one of my favorite Bass Drum Of Death songs, amazing to sing to and jam around with.

Verse


Guitar 1: (Left-Tremolo) 
e|----------|-------|
B|----------|-------|
G|-----2~---|3b0/---|
D|2~---2~---|-------|
A|2~---0~---|-------|    This second part changes up some times, like a mini solo. Even does this once. 3h5-5h0
E|0~--------|-------| <- Second part MOSTLY after every 2/4 measures. From what I could tell. Different live.

Guitar 2: (Distorted-Right)
e|-------------|------|
B|-------------|------|
G|-----------7-|-7777-| <- Slide bend on the G string when hit, and the multiple hits are every 4/4 measure.
D|-------------|------|    (Pretty much before the chorus'
A|-------------|------|
E|12~---5~-----|------|


Chorus


Guitar 1:
C, D, E x2 
C, D, A, B x1

Guitar 2
e|------------------------------------------------|
B|------------------------------------------------|
G|--------------12b---------------14b-------------|
D|---------12-14-------------12-14----------------|
A|------------------------------------------------|
E|8-10-12-----------8-10-12-----------8-10-5-----7|

And here are the official lyrics from the website, enjoy!


around half-five or so

anywhere i roam they're sure to go

anytime i'm off my head i see

demons all around these eerie streets

i see the faces of the wind

about to rest my head

i can't close my eyes, i'm seeing red

every time i scream they follow me

demons all around these eerie streets
Добавлено: 14.06.2015
Другие материалы по этой песне:
  • Аккорды и текст

Страница создана 14.06.2015
http://primanota.ru/bass-drum-of-death/faces-of-wind-chords.htm
Привет, Гость.
Предлагаем пройти революционный курс по гитаре.
Подарок от PrimaNota.Ru, забирай!