PrimaNota.ru - самый крупный в мире бесплатный архив песенных текстов, аккордов, табулатур и нот


August Burns Red - The Crack From Which Gold Pours - таба, видео

Регистрация Запомнить меня
Войти через:  Facebook Google Twitter Vk Yandex Mail.ru

August Burns Red - The Crack From Which Gold Pours - таба, видео

Печатать
Просмотров: 118
Aand: August Burns Red
Album: August Burns Red
Song: The Crack From Which Gold Pours


TabbDd by: wtflolbbq
Cmail: boxfactory76@yahoo.com

Tuning:Drop C

a really unappreciated song... prolly not even get rated :P prove me wrong!


D|-7-7-10-7-7-10-7-7-10-7-7-10-7-7-10-7-7-7-10-7-7-10-7-7--------------------|
A|--------------------------------------------------------5-5-5/8-8-8-8-8-8--|
F|---------------------------------------------------------------------------|
c|------------------------------------------------------------------------x3-|
G|---------------------------------------------------------------------------|
C|---------------------------------------------------------------------------|
 |                                                                 
D|-7------7------7----7------7------7----7------7------7---7-7-7-8-8-8-10-8--|
A|---8------8------8----8------8------8----8------8------8-------------------|
F|-----9------9-----------9------9-----------9------9------------------------|
c|------------------------------------------------------------------------x3-|
G|---------------------------------------------------------------------------|
C|---------------------------------------------------------------------------|

 Guitar 1
D|----------------------------------------------------------|
A|----------------------------------------------------------|
F|----------------------------------------------------------|
c|----------------------------------------------------------|
G|-0-000-0-0--0-0-000-0-0-0-3-333-3-3--3-3-333-3-3-3--------|
C|-0-000-0-0--0-0-000-0-0-0-3-333-3-3--3-3-333-3-3-3--------|
   . ... . .  . . ... . . . . ... . .  . . ... . . .
 
D|-----------------------------------------------------x3--|
A|---------------------------------------------------------|
F|---------------------------------------------------------|
c|---------------------------------------------------------|
G|-0-000-0-0--0-0-000-0-0-0-3-333-3-3--3-3-333-3-3-3-------|
C|-0-000-0-0--0-0-000-0-0-0-3-333-3-3--3-3-333-3-3-3-------|
 | . ... . .  . . ... . . . . ... . .  . . ... . . .       
 |                                                                     
D|-7-7-7-8-8-8-11-8-7-7-7-8-8-8-10-8-------------------x6--|
A|---------------------------------------------------------|
F|---------------------------------------------------------|
c|---------------------------------------------------------|
G|---------------------------------------------------------|
C|---------------------------------------------------------|


D|---------------------------------------------------x2-|-------|
A|------------------------------------------------------|-------|
F|------------------------------------------------------|-------|
c|------------------------------------------------------|--0----|
G|-0-000-0-0--0-0-000-0-0-0-0-000-0-0--0-0-000-0-0-0----|--0----|
C|-0-000-0-0--0-0-000-0-0-0-0-000-0-0--0-0-000-0-0-0----|--0----|
 | . ... . .  . . ... . . . . ... . .  . . ... . . .              
 |
D|---------------------------------------------------x2-|-------|
A|------------------------------------------------------|-------|
F|------------------------------------------------------|-------|
c|------------------------------------------------------|--0----|
G|-0-000-0-0--0-0-000-0-0-0-0-000-0-0--0-0-000-0-0-0----|--0----|
C|-0-000-0-0--0-0-000-0-0-0-0-000-0-0--0-0-000-0-0-0----|--0----|
   . ... . .  . . ... . . . . ... . .  . . ... . . .

D|--------------------------------------------------------|
A|--------------------------------------------------------|
F|--------------------------------------------------------|
c|---------7----------7-7---------7----------7h8p7--------|
G|-5-5-5-5----5-5-5-5-----8-8-8-8----8-8-8-8--------------|
C|--------------------------------------------------------|
 | . . . .    . . . .     . . . .    . . . . 
 |
D|--------------------------------------------------------|
A|--------------------------------------------------------|
F|--------------------------------------------------------|
c|-0------------------------------------------------------|
G|-0------------------------------------------------------|
C|-0------------------------------------------------------|


D|--------------------------------------------------------|
A|--------------------------------------------------------|
F|--------------------------------------------------------|
c|---------7-----------7-7---------7-----------7h8p7------|
G|-5-5-5-5----5--5-5-5-----8-8-8-8----8--8-8-8------------|
C|--------------------------------------------------------|
 | . . . .    .  . . .     . . . .    .  . . .
 |
D|--------------------------------------------------------|
A|--------------------------------------------------------|
F|--------------------------------------------------------|
c|--------------------------------------------------------|
G|-5-5-5------5--5-5-------8-8-8------8--8-8--------------|
C|--------------------------------------------------------|
   . . .      .  . .       . . .      .  . . 

D|-----------------------------------------------------x3-|
A|--------------------------------------------------------|
F|--------------------------------------------------------|
c|---------7-----------7-7---------7-----------7h8p7------|
G|-5-5-5-5----5--5-5-5-----8-8-8-8----8--8-8-8------------|
C|--------------------------------------------------------|
 | . . . .    .  . . .     . . . .    .  . . .
 |
D|-----------------------------------------------------x3-|
A|--------------------------------------------------------|
F|--------------------------------------------------------|
c|--------------------------------------------------------|
G|-5-5-5-5-5--5--5-5-5-5-5-8-8-8-8-8--8--8-8-8-8h9p8------|
C|--------------------------------------------------------|
   . . . .    .  . . .     . . . .    .  . . .
  
  Guitar 1 & 2
D|------------------------------------------|
A|------------------------------------------|
F|------------------------------------------|
c|-0-1-0--0-1-0--0-1-0--0-1-0-1-0-1-0-1-----|
G|-0-0-0--0-0-0--0-0-0--0-0-0-0-0-0-0-0-----|
C|-0-0-0--0-0-0--0-0-0--0-0-0-0-0-0-0-0-----|
   . . .  . . .  . . .  . . . . . . . . 

  Guitar 1
D|---------------------------------------------------------------x1--|
A|-------------------------------------------------------------------|
F|-------------------------------------------------------------------|
c|-0--1--0---------0--1--0---------0--1--0---------0-1-0-1-0-1-0-1---|
G|-0--0--0---------0--0--0---------0--0--0---------0-0-0-0-0-0-0-0---|
C|-0--0--0---------0--0--0---------0--0--0---------0-0-0-0-0-0-0-0---|
 | .  .  .         .  .  .         .  .  .         . . . . . . . .
 |Guitar 2
D|---------------------------------------------------------------x1--|
A|-------------------------------------------------------------------|
F|-------------------------------------------------------------------|
c|-0--1--0---------0--1--0---------0--1--0---------0-1-0-1-0-1-0-1---|
G|-0--0--0---------0--0--0---------0--0--0---------0-0-0-0-0-0-0-0---|
C|-0--0--0---------0--0--0---------0--0--0---------0-0-0-0-0-0-0-0---|
 | .  .  .         .  .  .         .  .  .         . . . . . . . .
 |Guitar 3
D|---------------------------------------------------------------x1--|
A|-------------------------------------------------------------------|
F|-------------------------------------------------------------------|
c|-0h2-0h2-0h3-0h2-0h2-0h2-0h3-0h2-0h2-0h2-0h3-0h2-0h3-0h2-0h3-0h2---|
G|-------------------------------------------------------------------|
C|-------------------------------------------------------------------|

  Guitar 1 & 2
D|------------------------------------------|
A|------------------------------------------|
F|------------------------------------------|
c|-0-1-0--0-1-0--0-1-0--0-1-0-1-0-1-0-1-----|
G|-0-0-0--0-0-0--0-0-0--0-0-0-0-0-0-0-0-----|
C|-0-0-0--0-0-0--0-0-0--0-0-0-0-0-0-0-0-----|
   . . .  . . .  . . .  . . . . . . . . 

  Guitar 1
D|---------------------------------------------------------------------------|
A|---------------------------------------------------------------------------|
F|---------------------------------------------------------------------------|
c|-3-3-3--3-3-3--3-3-3--3-3-3-3--7-7-7--7-7-7--7-7-7--7-7-7-7----------------|
G|-3-3-3--3-3-3--3-3-3--3-3-3-3--7-7-7--7-7-7--7-7-7--7-7-7-7----------------|
C|-------------------------------7-7-7--7-7-7--7-7-7--7-7-7-7----------------|
   . .    . .    . .             . .    . .    . .   

D|-------------------------------------------------------------------------x3-|
A|----------------------------------------------------------------------------|
F|----------------------------------------------------------------------------|
c|-3-3-3--3-3-3--3-3-3--3-3-3-3--7-7-7--7-7-7--7-7-7--7-7-7-7-----------------|
G|-3-3-3--3-3-3--3-3-3--3-3-3-3--7-7-7--7-7-7--7-7-7--7-7-7-7-----------------|
C|-------------------------------7-7-7--7-7-7--7-7-7--7-7-7-7-----------------|
 | . .    . .    . .             . .    . .    . .   
 |                                            (a bit iffy here) vvvvvvvvvv
D|-------------------------------------------------------------------------x3-|
A|---------------------------------------------------------------------1h3----|
F|-2-2h3p2-2-2-2h3p2-2-2-2h3p2-0-2p0---2-2h3p2-2-2h3p2-2-2-2h3p2-0-2h3--------|
c|-----------------------------------3----------------------------------------|
G|----------------------------------------------------------------------------|
C|----------------------------------------------------------------------------|

 Guitar 1 & 2
D|-----------------------------------------------------------x3--|
A|---------------------------------------------------------------|
F|---------------------------------------------------------------|
c|-3-3-3--3-3-3--3-3-3--3-3-3--7-7-7--7-7-7--3-3-2-2-0-0-0-------|
G|-3-3-3--3-3-3--3-3-3--3-3-3--7-7-7--7-7-7--3-3-2-2-0-0-0-------|
C|-3-3-3--3-3-3--3-3-3--3-3-3--7-7-7--7-7-7--3-3-2-2-0-0-0-------|
   . . .  . . .  . . .  . . .  . . .  . . .  . . . . . . .

D|----------------------------------------------------|
A|----------------------------------------------------|
F|----------------------------------------------------|
c|-3-3-3--3-3-3--3-3-3--3-3-3--7-7-7--7-7-7--3-3-2-2--|
G|-3-3-3--3-3-3--3-3-3--3-3-3--7-7-7--7-7-7--3-3-2-2--|
C|-3-3-3--3-3-3--3-3-3--3-3-3--7-7-7--7-7-7--3-3-2-2--|
   . . .  . . .  . . .  . . .  . . .  . . .  . . . .
   
D|---------------palm-mute-or-dont----------------------------|
A|--------------------------its-your-choice-------------------|
F|------------------------------------------------------------|
c|------------------------------------------------------------|
G|------------------------------------------------------------|
C|-000-000-x--0-000-000-000-000-000-000--0-000-000-000-000----|
 |
D|------------------------------------------------------------|
A|------------------------------------------------------------|
F|------------------------------------------------------------|
c|------------------------------------------------------------|
G|------------------------------------------------------------|
C|------------------------------000-000--0-000-000-000-000----|


D|------------------------------------------------------------|
A|------------------------------------------------------------|
F|------------------------------------------------------------|
c|------------------------------------------------------------|
G|------------------------------------------------------------|
C|-000-000--0-000-000-000-000-000-000--0-000-000-000-000------|
 |
D|------------------------------------------------------------|
A|------------------------------------------------------------|
F|------------------------------------------------------------|
c|------------------------------------------------------------|
G|------------------------------------------------------------|
C|-000-000--0-000-000-000-000-000-000--0-000-000-000-000------|


D|------------------------------------------------------------|
A|------------------------------------------------------------|
F|------------------------------------------------------------|
c|------------------------------------------------------------|
G|------------------------------------------------------------|
C|-000-000--0-000-000-000-000-000-000--0-000-000-000-000------|
 |
D|---------------------------------------------------------------------------|
A|-in-between-triplet-sets,-tremelo-pick-these-frets-------------------------|
F|------------------------------------------------Guitar-1-is-silent-during--|
c|---4"-------5"---------7"---------8"-------------------the-tremelo-picking-|
G|---------------------------------------------------------------------------|
C|---------------------------------------------------------------------------|

D|------------------------------------------------------------|
A|------------------------------------repeat-til-end----------|
F|------------------------------------------------------------|
c|------------------------------------------------------------|
G|------------------------------------------------------------|
C|-000-000--0-000-000-000-000-000-000--0-000-000-000-000------|
 |
D|--------------------------------repeat-til-end----|
A|--now-just-tremelo-pick-these---------------------|
F|--------------------------------------------------|
c|---4"-------5"--------7"---------8"---------------|
G|--------------------------------------------------|
C|--------------------------------------------------|


Done! What a kick ass song! Any corrections or comments are greatly appreciated.         
Just post and I'll be sure to edit the errors as I'm sure this isnt perfect.
Добавлено: 12.04.2012
Другие материалы по этой песне:
  • Аккорды и текст

Страница создана 12.04.2012
http://primanota.ru/august-burns-red/the-crack-from-which-gold-pours-chords.htm
Привет, Гость.
Предлагаем пройти революционный курс по гитаре.
Подарок от PrimaNota.Ru, забирай!