PrimaNota.ru - самый крупный в мире бесплатный архив песенных текстов, аккордов, табулатур и нот


August Burns Red - Beauty In Tragedy - таба, видео

Регистрация Запомнить меня
Войти через:  Facebook Google Twitter Vk Yandex Mail.ru

August Burns Red - Beauty In Tragedy - таба, видео

Печатать
Просмотров: 205
Tabbed by Bryan.

This is what I could figure out by listening. I haven't done the whole song yet but I 
wanted to get something up because there were NO TABS ANYWHERE for this song yet.

Feel free to throw up revisions/additions or drop me a message.


Blog:
http://theblogofbryan.com

YouTube Channel:
http://www.youtube.com/user/pakuriem


D|---------------------------|---------------------------|---------------------------|-----|
A|----------6----------------|----------6----------------|---------------------------|-----|
E|-------------7-------------|-------------7-------------|----------5--7----------5--|-----|
C|--5--7h8--------5--7h8--3--|--5--7h8--------5--7h8--3--|--8--7h8--------8--7h8-----|-----|
G|---------------------------|---------------------------|---------------------------|-----|
C|---------------------------|---------------------------|---------------------------|-----|



D|---------------------------|-----------------------------------------|--|
A|---------------------------|-----------------------------------------|--|
E|----------5--7----------5--|----------5--7--------------7------------|--|
C|--8--7h8--------8--7h8-----|--8--7h8----------7--8--10-----10--8/15--|--|
G|---------------------------|-----------------------------------------|--|
C|---------------------------|-----------------------------------------|--|



D|----------10------10--------------13------13------11------10------|--|
A|------11------11------11------11------11------11------11------11--|--|
E|--12----------------------12--------------------------------------|--|
C|------------------------------------------------------------------|--|
G|------------------------------------------------------------------|--|
C|------------------------------------------------------------------|--|



D|-------------10-----------------10------13--10--11p10----------|--|
A|-----------------11-----------------11-----------------11------|--|
E|--10h12--12----------12--10h12-----------------------------10--|--|
C|---------------------------------------------------------------|--|
G|---------------------------------------------------------------|--|
C|---------------------------------------------------------------|--|



D|------------------------------------------------------------------------------------|
A|------------11----------------------------------------------------------------------|
E|-----------------------------10p7-----7-----------7-----------7-----7---------------|
C|----------------------8------------8-------8--10-----8--8--8-----8-----8------------|
G|--8h10--10--------10-----10-----------------------------------------------10--8-----|
C|------------------------------------------------------------------------------------|



D|------------------------------|--|
A|------------------------------|--|
E|------------------------------|--|
C|----------8------8------------|--|
G|--10--10-----10-----10--8h10--|--|
C|------------------------------|--|



D|--1--1--1--1----x--xx----1--1--1--1----xx----1----xx----|
A|--4--4--4--4----x--xx----4--4--4--4----xx----4----xx----|
E|--3--3--3--3----x--xx----3--3--3--3----xx----3----xx----|
C|--1--1--1--1----x--xx----1--1--1--1----xx----1----xx----|
G|--1--1--1--1----x--xx----1--1--1--1----xx----1----xx----|
C|--1--1--1--1----x--xx----1--1--1--1----xx----1----xx----|


D|--5--5--5--5----x--xx----5--5--5--5----8---8---8---8----|
A|--8--8--8--8----x--xx----8--8--8--8----11--11--11--11---|
E|--7--7--7--7----x--xx----7--7--7--7----10--10--10--10---|
C|--5--5--5--5----x--xx----5--5--5--5----8---8---8---8----|
G|--5--5--5--5----x--xx----5--5--5--5----8---8---8---8----|
C|--5--5--5--5----x--xx----5--5--5--5----8---8---8---8----|



Then it goes on....

More to come.
Добавлено: 22.06.2013
Другие материалы по этой песне:
  • Аккорды и текст

Страница создана 22.06.2013
http://primanota.ru/august-burns-red/beauty-in-tragedy-chords.htm
Привет, Гость.
Предлагаем пройти революционный курс по гитаре.
Подарок от PrimaNota.Ru, забирай!