PrimaNota.ru - самый крупный в мире бесплатный архив песенных текстов, аккордов, табулатур и нот


As Blood Runs Black - Brighter Side Of Suffering - текст песни, таба, видео

Регистрация Запомнить меня
Войти через:  Facebook Google Twitter Vk Yandex Mail.ru

As Blood Runs Black - Brighter Side Of Suffering - текст песни, таба, видео

Печатать
Просмотров: 193
submitted by: Alex Madsen

........somebody had to figure it out

CGCFAD

|-------------------------------------------------------------------|
|-------------------------------------------------------------------|
|-------------------------------------------------------------------|
|--7--------------5-------8---5-----7--------------5----------------|
|-------8-------------7-----------------5--------------7--8--5h7h8--|
|----00--00000000--00---00--00----00--00--00000000--00--00-00-------|


|-------------------------------------------------------------------|
|-------------------------------------------------------------------|
|-------------------------------------------------------------------|
|-------------------------------------------------------------------|
|-8--5--8p7p5-8p7p5--8--5--8p7p5-8p7p5----7--4--7p5p4-7p5p4--7--4---|
|--00-00--------------00-00----------------00-00--------------00-00-|


|-------------------------------------------------------------------|
|-------------------------------------------------------------------|
|-------------------------------------------------------------------|
|-------------------------------------------------------------------|
|-7p5p4-7p5p4----10--7--10p8p7-10p8p7--10--7--10p8p7-10p8p7----8--5-|
|------------------00-00-----------------00-00------------------00--|


|-------------------------------------------------------------------|
|-------------------------------------------------------------------|
|-------------------------------------------------------------------|
|------------------------------7p5p3--------------------------------|
|---8p7p5-8p7p5----7--4--7p5p4--------------------------------------|
|-00----------------00-00-------------------------------------------|


|-----------------------------------------------------------------------|
|-----------------------------------------------------------------------|
|-----------------------------------------------------------------------|
|-----------------------------------------------------------------------|
|-8--5--7--8p7p5--8--7--8p7p5-8p7p5---7--4--5--7p5p4--7--4--7p5p4-7p5p4-|
|--00-00-00--------00-00---------------00-00-00--------00-00------------|


|----------------------------------------------------------------------------|
|----------------------------------------------------------------------------|
|----------------------------------------------------------------------------|
|----------------------------------------------------------------------7p5p3-|
|-10--7--8--10p8p7--10--7--10p8p7-10p8p7---8--5--7--8p7p5---7--5--7p5p4------|
|---00-00-00----------00-00-----------------00-00-00---------00-00-----------|

  Guitar 1
|-----------------------------------------------------------------------|
|-----------------------------------------------------------------------|
|-----------------------------------------------------------------------|
|-----------------------------------------------------------------------|
|-8--5--7--8p7p5--8--7--8p7p5-8p7p5---7--4--5--7p5p4--7--4--7p5p4-7p5p4-|
|--00-00-00--------00-00---------------00-00-00--------00-00------------|
|
| Guitar #2
|-----------------------------------------------------------------------|
|-----------------------------------------------------------------------|
|-----------------------------------------------------------------------|
|-7--3--5--7p5p3--7--3--7p5p3-7p5p3---5--2--3--5p3p2--5--2--5p3p2-5p3p2-|
|-----------------------------------------------------------------------|
|--00-00-00--------00-00---------------00-00-00--------00-00------------|


  Guitar #1
|----------------------------------------------------------------------------|
|----------------------------------------------------------------------------|
|----------------------------------------------------------------------------|
|----------------------------------------------------------------------7p5p3-|
|-10--7--8--10p8p7--10--7--10p8p7-10p8p7---8--5--7--8p7p5---7--5--7p5p4------|
|---00-00-00----------00-00-----------------00-00-00---------00-00-----------|
|
| Guitar #2
|----------------------------------------------------------------------------|
|----------------------------------------------------------------------------|
|----------------------------------------------------------------------------|
|-8--5--7--8p7p5-----8--5--8p7p5-8p7p5-----7--3--5--7p5p3--------------7p5p3-|
|-----------------------------------------------------------7--5--7p5p4------|
|--00-00-00-----------00-00-----------------00-00-00---------00-00-----------|

Breakdown.............................................

  Guitar #1
|-----------------------------------------------------------------|
|-----------------------------------------------------------------|
|-----------------------------------------------------------------|
|-----------------------------------------------------------------|
|-8--7--10--8-----8-8-5-7---------------8-----8-8-5-7-------------|
|-7--5--8----00000-0-0-0-000000000000----00000-0-0-0-000000000000-|
|
| Guitar #2
|-----------------------------------------------------------------|
|-----------------------------------------------------------------|
|-----------------------------------------------------------------|
|-----------------------------------------------------------------|
|-8--7--10--8-----8-8-5-7---------------8-----8-8-5-7-------------|
|-7--5--8----00000-0-0-0-000000000000----00000-0-0-0-000000000000-|

  Guitar #1
|-----------------------------------------------------------------|
|-----------------------------------------------------------------|
|-----------------------------------------------------------------|
|-----------------------------------------------------------------|
|-8-----8-8-5-7--------------8-----8-8-10-7-----------------------|
|--00000-0-0-0-000000000000---00000-0-0--0------------------------|
|
|
| Guitar #2
|-----------------------------------------------------------------|
|-----------------------------------------------------------------|
|-----------------------------------------------------------------|
|-7-----7-7-3-5--------------7-----7-7-8-5------------------------|
|-----------------------------------------------------------------|
|--00000-0-0-0-000000000000---00000-0-0-0-------------------------|
Добавлено: 27.07.2012
Другие материалы по этой песне:

Страница создана 06.03.2012
http://primanota.ru/as-blood-runs-black/brighter-side-of-suffering-chords.htm
Привет, Гость.
Предлагаем пройти революционный курс по гитаре.
Подарок от PrimaNota.Ru, забирай!