PrimaNota.ru - самый крупный в мире бесплатный архив песенных текстов, аккордов, табулатур и нот


As Blood Runs Black - Strife Chug Chug - текст песни, таба, бас-таба, видео

Регистрация Запомнить меня
Войти через:  Facebook Google Twitter Vk Yandex Mail.ru

As Blood Runs Black - Strife Chug Chug - текст песни, таба, бас-таба, видео

Печатать
Просмотров: 160
   Guitars I & II
D||-----------------------|
A||-----------------------|
F||-----------------------|
C||-----------------------|
G||-0--5--4--5--000-4--5--|
C||-0--3--2--3--000-2--3--|
PM|-x--x--x--x--xxx-x--x--|

   Guitars I & II
D||--------------------------------------------------------------------------------------------------------------|
A||--------------------------------------------------------------------------------------------------------------|
F||--------------------------------------------------------------------------------------------------------------|
C||--------------------------------------------------------------------------------------------------------------|
G||---555444555---555444555---555444555777555444555----101010888101010---121212101010888---101010888101010-7~-8*-|
C||-0-----------0-----------0------------------------8-----------------8-----------------8-----------------------|

   Guitars I & II
D||--------------------------------------------------------------------------------------------------------------|
A||--------------------------------------------------------------------------------------------------------------|
F||--------------------------------------------------------------------------------------------------------------|
C||--------------------------------------------------------------------------------------------------------------|
G||---555444555---555444555---555444555777555444555----101010888101010---121212101010888---101010888101010-7~-8*-|
C||-0-----------0-----------0------------------------8-----------------8-----------------8-----------------------|

   Guitar I
D||----------------------------------------------------------------------------------------|
A||----------------------------------------------------------------------------------------|
F||----------------------------------------------------------------------------------------|
C||----------------------------------------------------------------------------------------|
G||-0--000--000--000-0---555444555777555444555--8--888--888--888-8---101010888101010-7~-8*-|
C||-0--000--000--000-0-0------------------------8--888--888--888-8-8-----------------------|
PM|-x--xxx--xxx--xxx-x--------------------------x--xxx--xxx--xxx-x-------------------------|
 ||
 ||Guitar II
D||--------------------------------------------------------------------------------------------------------------|
A||--------------------------------------------------------------------------------------------------------------|
F||--------------------------------------------------------------------------------------------------------------|
C||--------------------------------------------------------------------------------------------------------------|
G||---555444555---555444555---555444555777555444555----101010888101010---121212101010888---101010888101010-7~-8*-|
C||-0-----------0-----------0------------------------8-----------------8-----------------8-----------------------|

   Guitar I
D||--------------------------------------------------------------------------------------------------|
A||--------------------------------------------------------------------------------------------------|
F||--------------------------------------------------------------------------------------------------|
C||-------------------------------------------------------888777888---101010888777---888777888-5~-7*-|
G||---888777888---888777888---888777888101010888777888-----------------------------------------------|
C||-0-----------0-----------0---------------------------8-----------8--------------8-----------------|
 ||
 ||Guitar II
D||--------------------------------------------------------------------------------------------------------------|
A||--------------------------------------------------------------------------------------------------------------|
F||--------------------------------------------------------------------------------------------------------------|
C||--------------------------------------------------------------------------------------------------------------|
G||---555444555---555444555---555444555777555444555----101010888101010---121212101010888---101010888101010-7~-8*-|
C||-0-----------0-----------0------------------------8-----------------8-----------------8-----------------------|

   Guitars I & II
D||-----------------------------------------------|
A||-----------------------------------------------|
F||-----------------------------------------------|
C||-----------------------------------------------|
G||-0---0-0-0-0-0--0-0--0-0--00--00--0-0-0-0-12\--|
C||-0---0-0-0-0-0--0-0--0-0--00--00--0-0-0-0-12\--|
PM|-x---x-x-x-x-x--x-x--x-x--xx--xx--x-x-x-x------|

   Guitars I & II
D||------------------------------------------------------------------------------------------|
A||------------------------------------------------------------------------------------------|
F||------------------------------------------------------------------------------------------|
C||------------------------------------------------------------------------------------------|
G||-0---0-0-0-0-0--0-0--0-0--00--00--0-0-0-0-0---0---0-0-0-0-0--0-0--0-0--00--00--0-0-0-0-0--|
C||-0---0-0-0-0-0--0-0--0-0--00--00--0-0-0-0-0---0---0-0-0-0-0--0-0--0-0--00--00--0-0-0-0-0--|
PM|-x---x-x-x-x-x--x-x--x-x--xx--xx--x-x-x-x-x---x---x-x-x-x-x--x-x--x-x--xx--xx--x-x-x-x-x--|

   Guitars I & II
D||------------------------------------------------------------------------------------------|
A||------------------------------------------------------------------------------------------|
F||------------------------------------------------------------------------------------------|
C||------------------------------------------------------------------------------------------|
G||-0---0-0-0-0-0--0-0--0-0--00--00--0-0-0-0-0---0---0-0-0-0-0--0-0--0-0--00--00--0-0-0-0-0--|
C||-0---0-0-0-0-0--0-0--0-0--00--00--0-0-0-0-0---0---0-0-0-0-0--0-0--0-0--00--00--0-0-0-0-0--|
PM|-x---x-x-x-x-x--x-x--x-x--xx--xx--x-x-x-x-x---x---x-x-x-x-x--x-x--x-x--xx--xx--x-x-x-x-x--|

   Guitars I & II
D||------------------------------------------------------------------------------------------|
A||------------------------------------------------------------------------------------------|
F||------------------------------------------------------------------------------------------|
C||--------------------------0~--------------------------------------------------------------|
G||-0---0-0-0-0-0--0-0--0-0--0~--------------12\-0---0-0-0-0-0--0-0--0-0--00--00--0-0-0-0-0--|
C||-0---0-0-0-0-0--0-0--0-0--0~--------------12\-0---0-0-0-0-0--0-0--0-0--00--00--0-0-0-0-0--|
PM|-x---x-x-x-x-x--x-x--x-x----------------------x---x-x-x-x-x--x-x--x-x--xx--xx--x-x-x-x-x--|

   Guitars I & II
D||------------------------------------------------------------------------------------------|
A||------------------------------------------------------------------------------------------|
F||------------------------------------------------------------------------------------------|
C||--------------------------0~--------------------------------------------------------------|
G||-0---0-0-0-0-0--0-0--0-0--0~--------------12\-0---0-0-0-0-0--0-0--0-0--00--00--0-0-0-0-0--|
C||-0---0-0-0-0-0--0-0--0-0--0~--------------12\-0---0-0-0-0-0--0-0--0-0--00--00--0-0-0-0-0--|
PM|-x---x-x-x-x-x--x-x--x-x----------------------x---x-x-x-x-x--x-x--x-x--xx--xx--x-x-x-x-x--|

   Guitar I
D||-------------------------------------------------------------------------------------------------------------------|
A||-------------------------------------------------------------------------------------------------------------------|
F||-------------------------------------------------------------------------------------------------------------------|
C||-0~----------------------------------------------------------------------------------------------------------------|
G||-0~----------------------------------------------------------------------------------------------------------------|
C||-0~----------------------------------------------------------------------------------------------------------------|
 ||
 ||Guitar II
D||---------------------------------------------------------|
A||---------------------------------------------------------|
F||---------------------------------------------------------|
C||-----------------5-------------------------5-------------|
G||-----8---8---5-------8---7h8p7-----8---8-------8---7h8p7-|
C||-0-0---0---0---0---0---0-------0-0---0---0---0---0-------|
PM|---x---x---x---x---x---x---------x---x---x---x---x-------|

   Guitar I
D||---------------------------------------------------------------|
A||---------------------------------------------------------------|
F||---------------------------------------------------------------|
C||-8~-----------------------------------7~----------------3~-----|
G||-8~-----------------------------------7~----------------3~-----|
C||-8~-----------------------------------7~----------------3~-----|
 ||
 ||Guitar II
D||-------------------------------------------------------------|
A||-------------------------------------------------------------|
F||-------------------------------------------------------------|
C||-------------------------------------------------------------|
G||-----10---10---8---12---10---8h10p8-----10---10---7---8~--8*-|
C||-8-8----8----8---8----8----8--------7-7----7----7---7--------|
PM|---x----x----x---x----x----x----------x----x----x---x--------|

   Guitars I & II
D||---------------------------------------------------------|
A||---------------------------------------------------------|
F||---------------------------------------------------------|
C||-----------------5-------------------------5-------------|
G||-----8---8---5-------8---7h8p7-----8---8-------8---7h8p7-|
C||-0-0---0---0---0---0---0-------0-0---0---0---0---0-------|
PM|---x---x---x---x---x---x---------x---x---x---x---x-------|

   Guitars I & II
D||-------------------------------------------------------------|
A||-------------------------------------------------------------|
F||-------------------------------------------------------------|
C||-------------------------------------------------------------|
G||-----10---10---8---12---10---8h10p8-----10---10---7---8~--8*-|
C||-8-8----8----8---8----8----8--------7-7----7----7---7--------|
PM|---x----x----x---x----x----x----------x----x----x---x--------|

   Guitar I
D||---------------------------------------------------------------|
A||---------------------------------------------------------------|
F||---------------------------------------------------------------|
C||---------------------------------------------8-----------------|
G||-----------------------------------12---12-------12---10h12p10-|
C||-------------------------------0-0----0----0---0----0----------|
PM|---------------------------------x----x----x---x----x----------|
 ||
 ||Guitar II
D||---------------------------------------------------------|
A||---------------------------------------------------------|
F||---------------------------------------------------------|
C||-----------------5-------------------------5-------------|
G||-----8---8---5-------8---7h8p7-----8---8-------8---7h8p7-|
C||-0-0---0---0---0---0---0-------0-0---0---0---0---0-------|
PM|---x---x---x---x---x---x---------x---x---x---x---x-------|

   Guitar I
D||--------------------------------------------------------|
A||--------------------------------------------------------|
F||--------------------------------------------------------|
C||-----8---8---7---10---8---7h8p7-----8---8---5---7~--7*--|
G||--------------------------------------------------------|
C||-8-8---8---8---8----8---8-------7-7---7---7---7---------|
PM|---x---x---x---x----x---x-------x-x---x---x---x---------|
 ||
 ||Guitar II
D||-------------------------------------------------------------|
A||-------------------------------------------------------------|
F||-------------------------------------------------------------|
C||-------------------------------------------------------------|
G||-----10---10---8---12---10---8h10p8-----10---10---7---8~--8*-|
C||-8-8----8----8---8----8----8--------7-7----7----7---7--------|
PM|---x----x----x---x----x----x----------x----x----x---x--------|

   Guitar I (Repeat Through Solo)
D||-----------------------------------------------------------------|
A||-----------------------------------------------------------------|
F||-----------------------------------------------------------------|
C||---------------8-------------------------------8-----------------|
G||-----12---12-------12---10h12p10-----12---12-------12---10h12p10-|
C||-0-0----0----0---0----0----------0-0----0----0---0----0----------|
PM|---x----x----x---x----x------------x----x----x---x----x----------|
 ||
 ||Guitar II (Repeat Through Solo)
D||---------------------------------------------------------|
A||---------------------------------------------------------|
F||---------------------------------------------------------|
C||-----------------5-------------------------5-------------|
G||-----8---8---5-------8---7h8p7-----8---8-------8---7h8p7-|
C||-0-0---0---0---0---0---0-------0-0---0---0---0---0-------|
PM|---x---x---x---x---x---x---------x---x---x---x---x-------|

   Guitar I (Repeat Through Solo Cont.)
D||------------------------------------------------------------|
A||------------------------------------------------------------|
F||------------------------------------------------------------|
C||-----10---10---8---12---10---8h10p8-----8---8---5---7~--7*--|
G||------------------------------------------------------------|
C||-8-8----8----8---8----8----8--------7-7---7---7---7---------|
PM|------------------------------------------------------------|
 ||
 ||Guitar II (Repeat Through Solo Cont.)
D||---------------------------------------------------------------|
A||---------------------------------------------------------------|
F||---------------------------------------------------------------|
C||--------------------8------------------------------------------|
G||-----12---12---10-------12---10h12p10-----10---10---7---8~--8*-|
C||-8-8----8----8----8---8----8----------7-7----7----7---7--------|
PM|---x----x----x----x---x----x------------x----x----x---x--------|

   Guitars I & II
D||-----------------------|
A||-----------------------|
F||-----------------------|
C||-----------------------|
G||-0--5--4--5--000-4--5--|
C||-0--3--2--3--000-2--3--|
PM|-x--x--x--x--xxx-x--x--|

   Guitars I & II
D||-----------------------------------------------------------------------------------------------------|
A||-----------------------------------------------------------------------------------------------------|
F||-----------------------------------------------------------------------------------------------------|
C||-----------------------------------------------------------------------------------------------------|
G||---555444555---555444555---555444555-7--5--4--5----555444555---555444555---555444555-7-7-7-7-5-5-5-5-|
C||-0-----------0-----------0-----------5--3--2--3--0-----------0-----------0-----------5-5-5-5-3-3-3-3-|
PM|-------------------------------------x--x--x--x--------------------------------------x-x-x-x-x-x-x-x-|

   Guitars I & II
D||-------------------------------------------------|
A||-------------------------------------------------|
F||-------------------------------------------------|
C||-------------------------------------------------|
G||---555444555---555444555---555444555-7--5--4--5--|
C||-0-----------0-----------0-----------5--3--2--3--|
PM|-------------------------------------x--x--x--x--|

   Guitars I & II
D||-------------------------------------------------------------------------------------------------|
A||-------------------------------------------------------------------------------------------------|
F||-------------------------------------------------------------------------------------------------|
C||-------------------------------------------------------------------------------------------------|
G||-7--5--4--5--7--5--4--5--7--5--4--5--7--5--4--5--7--5--4--5--7--5--4--5--7--5--4--5--7--5--4--5--|
C||-5--3--2--3--5--3--2--3--5--3--2--3--5--3--2--3--5--3--2--3--5--3--2--3--5--3--2--3--5--3--2--3--|
PM|-x--x--x--x-----x--x--x--x--x--x--x-----x--x--x--x--x--x--x-----x--x--x--x--x--x--x-----x--x--x--|

   Guitars I & II
D||-------------------------------------------------------------------------------------------------|
A||-------------------------------------------------------------------------------------------------|
F||-------------------------------------------------------------------------------------------------|
C||-------------------------------------------------------------------------------------------------|
G||-7--5--4--5--7--5--4--5--7--5--4--5--7--5--4--5--7--5--4--5--7--5--4--5--7--5--4--5--7--5--4--5--|
C||-5--3--2--3--5--3--2--3--5--3--2--3--5--3--2--3--5--3--2--3--5--3--2--3--5--3--2--3--5--3--2--3--|
PM|-x--x--x--x-----x--x--x--x--x--x--x-----x--x--x--x--x--x--x-----x--x--x--x--x--x--x-----x--x--x--|

   Guitar I
D||----------------------------------------------------------------------------------------|
A||----------------------------------------------------------------------------------------|
F||----------------------------------------------------------------------------------------|
C||------------------------------------------------------0~--------------------------------|
G||-000--000--------000----000----000--000--------X\-----0~--------------------------------|
C||-000--000--------000----000----000--000--------X\-----0~--------------------------------|
PM|-xxx--xxx--------xxx----xxx----xxx--xxx-------------------------------------------------|
 ||
 ||Guitar II
D||----------------------------------------------------------------------------------------|
A||----------------------------------------------------------------------------------------|
F||----------------------------------------------------------------------------------------|
C||----------------------------------------------------------------------------------------|
G||-000--000--------000----000----000--000--------000----000----000--000--------000----000-|
C||-000--000--------000----000----000--000--------000----000----000--000--------000----000-|
PM|-xxx--xxx--------xxx----xxx----xxx--xxx--------xxx----xxx----xxx--xxx--------xxx----xxx-|

   Guitar I
D||----------------------------|
A||----------------------------|
F||----------------------------|
C||----------------------------|
G||-----------0-----000--------|
C||-----------0-----000--------|
PM|-----------x-----xxx--------|
 ||
 ||Guitar II
D||----------------------------|
A||----------------------------|
F||----------------------------|
C||----------------------------|
G||-000--000--0------------0-0-|
C||-000--000--0------------0-0-|
PM|-xxx--xxx--x------------x-x-|

   Guitars I & II
D||-----------------------------------------------------------------------------------------------------------------|
A||-----------------------------------------------------------------------------------------------------------------|
F||-----------------------------------------------------------------------------------------------------------------|
C||-----------------------------------------------------------------------------------------------------------------|
G||-000--000--------000--0--0--000--000--------000--0---0---000--000--------000--0--0--000--000--------000--0---0---|
C||-000--000--------000--0--0--000--000--------000--0---0---000--000--------000--0--0--000--000--------000--0---0---|
PM|-xxx--xxx--------xxx--x--x--xxx--xxx--------xxx--x---x---xxx--xxx--------xxx--x--x--xxx--xxx--------xxx--x---x---|

   Guitars I & II
D||-------------------------------------------------------------------------------------------------------------------|
A||-------------------------------------------------------------------------------------------------------------------|
F||-------------------------------------------------------------------------------------------------------------------|
C||-------------------------------------------------------------------------------------------------------------------|
G||-000--000------000--0--0--000--000--5-4-0-/8--7-5-7--5-4~-000--000------000--0--0--000--000--5-4-0-/8--7-5-7--5-4~-|
C||-000--000------000--0--0--000--000------------------------000--000------000--0--0--000--000------------------------|
PM|-xxx--xxx------xxx--x--x--xxx--xxx------------------------xxx--xxx------xxx--x--x--xxx--xxx------------------------|

   Guitar I
D||--------------------------------------------------------------------|
A||--------------------------------------------------------------------|
F||--------------------------------------------------------------------|
C||--------------------------------------------------------------------|
G||-0-0-0--8-7-0-/12--10-8-10--8-7~--0-0-0-0-8-7-0-/12--10-8-10--8-7~--|
C||-0-0-0----------------------------0-0-0-0---------------------------|
PM|-x-x-x----------------------------x-x-x-x---------------------------|
 ||
 ||Guitar II
D||--------------------------------------------------------------|
A||--------------------------------------------------------------|
F||--------------------------------------------------------------|
C||--------------------------------------------------------------|
G||-0-0-0--5-4-0-/8--7-5-7--5-4~--0-0-0-0-5-4-0-/8--7-5-7--5-4~--|
C||-0-0-0-------------------------0-0-0-0------------------------|
PM|-x-x-x-------------------------x-x-x-x------------------------|

   Guitar I
D||--------------------------------------------------------------------|
A||--------------------------------------------------------------------|
F||--------------------------------------------------------------------|
C||--------------------------------------------------------------------|
G||-0-0-0--8-7-0-/12--10-8-10--8-7~--0-0-0-0-8-7-0-/12--10-8-10--8-7~--|
C||-0-0-0----------------------------0-0-0-0---------------------------|
PM|-x-x-x----------------------------x-x-x-x---------------------------|
 ||
 ||Guitar II
D||--------------------------------------------------------------|
A||--------------------------------------------------------------|
F||--------------------------------------------------------------|
C||--------------------------------------------------------------|
G||-0-0-0--5-4-0-/8--7-5-7--5-4~--0-0-0-0-5-4-0-/8--7-5-7--5-4~--|
C||-0-0-0-------------------------0-0-0-0------------------------|
PM|-x-x-x-------------------------x-x-x-x------------------------|

   Guitars I & II
D||--------------------------------------------------------------|
A||--------------------------------------------------------------|
F||--------------------------------------------------------------|
C||--------------------------------------------------------------|
G||-0-0-0-------------------------0-0-0-0------------------------|
C||-0-0-0-------------------------0-0-0-0------------------------|
PM|-x-x-x-------------------------x-x-x-x------------------------|

   Guitar I
D||------------------------------------------------------------------|
A||------------------------------------------------------------------|
F||------------------------------------------------------------------|
C||------------------------------------------------------------------|
G||-0-0-0-0-0-0-0-0-0-0-0-0-0-0-0-0-0-0-0--8-7-0-/12--10-8-10--8-7~--|
C||-0-0-0-0-0-0-0-0-0-0-0-0-0-0-0-0-0-0-0----------------------------|
PM|-x-x-x-x-x-x-x-x--------------------------------------------------|
 ||
 ||Guitar II
D||---------------------------------------------------------------|
A||---------------------------------------------------------------|
F||---------------------------------------------------------------|
C||---------------------------------------------------------------|
G||-0-0-0-0-0-0-0-0-0-0-0-0-0-0-0-0-0-0-0--5-4-0-/8--7-5-7--5-4~--|
C||-0-0-0-0-0-0-0-0-0-0-0-0-0-0-0-0-0-0-0-------------------------|
PM|-x-x-x-x-x-x-x-x-----------------------------------------------|

   Guitars I & II
D||--------------------------------------------------------------|
A||--------------------------------------------------------------|
F||--------------------------------------------------------------|
C||--------------------------------------------------------------|
G||-0-0-0--5-4-0-/8--7-5-7--5-4~--0-0-0-0-5-4-0-/8--7-5-7--5-4~--|
C||-0-0-0--3-2-0--7--5-3-5--3-2~--0-0-0-0-3-2-0--7--5-3-5--3-2~--|
PM|-x-x-x-------------------------x-x-x-x------------------------|

   Guitars I & II
D||--------------------------------------------------------------|
A||--------------------------------------------------------------|
F||--------------------------------------------------------------|
C||--------------------------------------------------------------|
G||-0-0-0--5-4-0-/8--7-5-7--5-4~--0-0-0-0-5-4-0-/8--7-5-7--5-4~--|
C||-0-0-0--3-2-0--7--5-3-5--3-2~--0-0-0-0-3-2-0--7--5-3-5--3-2~--|
PM|-x-x-x-------------------------x-x-x-x------------------------|

   Guitar I
D||--------------------------------------------------------------------|
A||--------------------------------------------------------------------|
F||--------------------------------------------------------------------|
C||--------------------------------------------------------------------|
G||-0-0-0--8-7-0-/12--10-8-10--8-7~--0-0-0-0-8-7-0-/12--10-8-10--8-7~--|
C||-0-0-0----------------------------0-0-0-0---------------------------|
PM|-x-x-x----------------------------x-x-x-x---------------------------|
 ||
 ||Guitar II
D||--------------------------------------------------------------|
A||--------------------------------------------------------------|
F||--------------------------------------------------------------|
C||--------------------------------------------------------------|
G||-0-0-0--5-4-0-/8--7-5-7--5-4~--0-0-0-0-5-4-0-/8--7-5-7--5-4~--|
C||-0-0-0-------------------------0-0-0-0------------------------|
PM|-x-x-x-------------------------x-x-x-x------------------------|

   Guitar I
D||--------------------------------------------------------------------|
A||--------------------------------------------------------------------|
F||--------------------------------------------------------------------|
C||--------------------------------------------------------------------|
G||-0-0-0--8-7-0-/12--10-8-10--8-7~--0-0-0-0-8-7-0-/12--10-8-10--8-7*--|
C||-0-0-0----------------------------0-0-0-0---------------------------|
PM|-x-x-x----------------------------x-x-x-x---------------------------|
 ||
 ||Guitar II
D||--------------------------------------------------------------|
A||--------------------------------------------------------------|
F||--------------------------------------------------------------|
C||--------------------------------------------------------------|
G||-0-0-0--5-4-0-/8--7-5-7--5-4~--0-0-0-0-5-4-0-/8--7-5-7--5-4*--|
C||-0-0-0-------------------------0-0-0-0------------------------|
PM|-x-x-x-------------------------x-x-x-x------------------------|
Добавлено: 19.03.2012
Другие материалы по этой песне:

Страница создана 19.03.2012
http://primanota.ru/as-blood-runs-black/strife-chug-chug-chords.htm
Привет, Гость.
Предлагаем пройти революционный курс по гитаре.
Подарок от PrimaNota.Ru, забирай!