PrimaNota.ru - самый крупный в мире бесплатный архив песенных текстов, аккордов, табулатур и нот


As Blood Runs Black - These Dying Days - таба, видео

Регистрация Запомнить меня
Войти через:  Facebook Google Twitter Vk Yandex Mail.ru

As Blood Runs Black - These Dying Days - таба, видео

Печатать
Просмотров: 115
Been getting a few comments and messages on the title of this stupid thing. I can't change the title as it appears on the site, only in the actual tab. I downloaded it online as "These Dying Days" and it was the first song I've heard by them. I thought that's the way it was so I kept it like that... I haven't changed it for so long until just now (in the tab). If you are going to b!tch about the song title and give it a lower rating, go fuck yourself.. learn to play guitar and tab shit out yourself, kthxbye.As recorded by As Blood Runs Black
                               (From the Demo)

Words and Music by As Blood Runs Black
Transcribed by jonathan rose

Gtr I (C G C F A D) 
Gtr II (C G C F A D) 

 Intro
  Dancefight Q=154
  D5
 4/4
  Gtr I
     PM--|    PM--|       PM  PM   PM  PM  PM
     |-3-|    |-3-|    |-3--| |-3--| |-3-| |-4:3-|
  Q  E E E Q  E E E    E  E E E  E E E E E E S S S +X
|-------------------|----------------------------------|
|-------------------|----------------------------------|
|-------------------|----------------------------------|
|-------------------|----------------------------------|
|-5--------5--------|--8----7---10---8---7---7-8-7-(7)-|
|----0-0-0----0-0-0-|-----0---0----0---0---0-----------|
|
| Gtr II
| W                   +W
|-------------------|----------------------------------|
|-------------------|----------------------------------|
|-------------------|----------------------------------|
|-0-----------------|-(0)------------------------------|
|-0-----------------|-(0)------------------------------|
|-0-----------------|-(0)------------------------------|


  Bb5                    A5
     PM--|     PM           PM--|     PM
     |-3-| |-3-| |-3-|      |-3-| |-3-| |-3-|
  Q  E E E E E E E E E   Q  E E E E E E E E E
|----------------------|----------------------|
|----------------------|----------------------|
|----------------------|----------------------|
|----------------------|----------------------|
|----------7-8---5-7-5-|----------5-7---4-5-4-|
|-8--8-8-8-----8-------|-7--7-7-7-----7-------|
|
| W                      W
|----------------------|----------------------|
|----------------------|----------------------|
|----------------------|----------------------|
|-8--------------------|-7--------------------|
|-8--------------------|-7--------------------|
|-8--------------------|-7--------------------|


  N.C.
     PM--|    PM--|         PM      PM
     |-3-|    |-3-|    |-3--|  |-3--|  |--3--|
  Q  E E E Q  E E E    E  E E  E  E E  E  E  E  Q
|-------------------|------------------------------|
|-------------------|------------------------------|
|-------------------|------------------------------|
|-------------------|------------------------------|
|-5--------5--------|--8-10---10-12----8-10--8--7--|
|----0-0-0----0-0-0-|-------0-------0--------------|
|
|    PM--|    PM--|         PM      PM
|    |-3-|    |-3-|    |-3--|  |-3--|  |--3--|
| Q  E E E Q  E E E    E  E E  E  E E  E  E  E  Q
|-------------------|------------------------------|
|-------------------|------------------------------|
|-------------------|------------------------------|
|-------------------|------------------------------|
|-8--------8--------|-12-13---13-15---12-13-12-10--|
|----0-0-0----0-0-0-|-------0-------0--------------|


      TP  TP  TP    TP  TP TP TP
  Q   Q   Q   Q     Q   Q  Q  Q
|----------------|----------------|
|----------------|----------------|
|----------------|----------------|
|----------------|----------------|
|-----7---8--10--|--8---7--5--4---|
|-8--------------|----------------|
|
|     TP  TP  TP    TP  TP TP TP
| Q   Q   Q   Q     Q   Q  Q  Q
|----------------|----------------|
|----------------|----------------|
|----------------|----------------|
|----------------|----------------|
|----10--12--13--|-12--10--8--7---|
|-8--------------|----------------|


  N.C.
     PM--|    PM--|      PM   PM   PM   PM   PM
     |-3-|    |-3-|    |-3--| |-3--|  |-3--| |--4:3---|
  Q  E E E Q  E E E    E E  E E  E E  E E  E E  S  S  S  +X
|-------------------|----------------------------------------|
|-------------------|----------------------------------------|
|-------------------|----------------------------------------|
|-------------------|----------------------------------------|
|-5--------5--------|--8----7---10----8----7----7--8--7--(7)-|
|----0-0-0----0-0-0-|----0----0----0----0----0---------------|
|
|    PM--|    PM--|      PM   PM   PM   PM   PM
|    |-3-|    |-3-|    |-3--| |-3--|  |-3--| |--4:3---|
| Q  E E E Q  E E E    E E  E E  E E  E E  E E  S  S  S  +X
|-------------------|----------------------------------------|
|-------------------|----------------------------------------|
|-------------------|----------------------------------------|
|-------------------|----------------------------------------|
|-8--------8--------|-12---10---13---12---10---10-12-10-(10)-|
|----0-0-0----0-0-0-|----0----0----0----0----0---------------|


     PM--|       PM            PM--|      PM
     |-3-|  |-3--| |-3--|      |-3-| |-3--| |-3-|
  Q  E E E  E  E E E  E E   Q  E E E E  E E E E E
|-------------------------|------------------------|
|-------------------------|------------------------|
|-------------------------|------------------------|
|-------------------------|------------------------|
|-----------7--8---5--7-5-|----------5--7---4-5-4--|
|-8--8-8-8-------8--------|-7--7-7-7------7--------|
|
|    PM--|       PM            PM--|      PM
|    |-3-|  |-3--| |-3--|      |-3-| |-3--| |-3-|
| Q  E E E  E  E E E  E E   Q  E E E E  E E E E E
|-------------------------|------------------------|
|-------------------------|------------------------|
|-------------------------|------------------------|
|-------------------------|------------------------|
|----------10-12---8-10-8-|----------8-10---7-8-7--|
|-8--8-8-8-------8--------|-7--7-7-7------7--------|


  N.C.
  Gtr I
     PM--|    PM--|         PM      PM
     |-3-|    |-3-|    |-3--|  |-3--|  |--3--|
  Q  E E E Q  E E E    E  E E  E  E E  E  E  E  Q
|-------------------|------------------------------|
|-------------------|------------------------------|
|-------------------|------------------------------|
|-------------------|------------------------------|
|-5--------5--------|--8-10---10-12----8-10--8--7--|
|----0-0-0----0-0-0-|-------0-------0--------------|
|
|    PM--|    PM--|         PM      PM
|    |-3-|    |-3-|    |-3--|  |-3--|  |--3--|
| Q  E E E Q  E E E    E  E E  E  E E  E  E  E  Q
|-------------------|------------------------------|
|-------------------|------------------------------|
|-------------------|------------------------------|
|-------------------|------------------------------|
|-8--------8--------|-12-13---13-15---12-13-12-10--|
|----0-0-0----0-0-0-|-------0-------0--------------|


      TP  TP  TP    TP  TP TP TP
  Q   Q   Q   Q     Q   Q  Q  Q
|----------------|----------------||
|----------------|----------------||
|----------------|----------------||
|----------------|----------------||
|-----7---8--10--|--8---7--5--4---||
|-8--------------|----------------||
|
|     TP  TP  TP    TP  TP TP TP
| Q   Q   Q   Q     Q   Q  Q  Q
|----------------|----------------||
|----------------|----------------||
|----------------|----------------||
|----------------|----------------||
|----10--12--13--|-12--10--8--7---||
|-8--------------|----------------||


 Intro Pt II
  Q=222
  D5
  Gtrs I, II
  W          +W           +W           +W
|----------|------------|------------|--------|
|----------|------------|------------|--------|
|----------|------------|------------|--------|
|-0--------|-(0)--------|-(0)--------|-(0)----|
|-0--------|-(0)--------|-(0)--------|-(0)----|
|-0--------|-(0)--------|-(0)--------|-(0)----|


  D5
  +W           +W           +W
|------------|------------|--------||
|------------|------------|--------||
|------------|------------|--------||
|-(0)--------|-(0)--------|-(0)----||
|-(0)--------|-(0)--------|-(0)----||
|-(0)--------|-(0)--------|-(0)----||


   "Leaders are hard to.."
    N.C.
    Gtrs I, II
      PM|   PM|   PM    PM  PM   PM      PM|   PM  PM      PM|   PM  PM
    E E E E E E E E   E E E E  E E E E   E E E E E E E E   E E E E E E E E
||------------------|------------------|-----------------|------------------|
||o-----------------|------------------|-----------------|------------------|
||------------------|------------------|-----------------|------------------|
||------------------|------------------|-----------------|------------------|
||o-5-----5-----5---|-8---7---10---8-7-|-----5---5---5-7-|-----4---4---4-5--|
||----0-0---0-0---0-|---0---0----0-----|-8-8---8---8-----|-7-7---7---7------|


  N.C.
    PM|   PM|   PM                           TP TP  TP   TP TP TP TP
  E E E E E E E E   E  E E  E E  E E  E   Q  Q  Q   Q    Q  Q  Q  Q
|-----------------|---------------------|--------------|--------------||
|-----------------|---------------------|--------------|-------------o||
|-----------------|---------------------|--------------|--------------||
|-----------------|---------------------|--------------|--------------||
|-5-----5-----5---|-8h12-8h12-7h10-7h10-|----7--8--10--|-8--7--5--4--o||
|---0-0---0-0---0-|---------------------|-8------------|--------------||


 "No one is setting a.."
  N.C.
  PM|   PM    PM      PM    PM       ~~~~
  E E E E E E E E   E E E E E E  E  +E
|-----------------|---------------------|
|-----------------|---------------------|
|-----------------|---------------------|
|-----------------|---------------------|
|-----5---4-5---5-|-7---7-8---8-10-(10)-|
|-0-0---0-----0---|---0-----0-----------|


  PM|   PM    PM                      ~~~
  E E E E E E E E    E E E E E E  E  +E
|-----------------|----------------------|
|-----------------|----------------------|
|-----------------|----------------------|
|-----------------|----------------------|
|-----7---7-8---8-|-10---7-8---4-[5]-(5)-|
|-0-0---0-----0---|----0-----0-----------|


  N.C.
  PM|   PM    PM      PM    PM       ~~~~
  E E E E E E E E   E E E E E E  E  +E
|-----------------|---------------------|
|-----------------|---------------------|
|-----------------|---------------------|
|-----------------|---------------------|
|-----5---4-5---5-|-7---7-8---8-10-(10)-|
|-0-0---0-----0---|---0-----0-----------|


  PM|   PM     PM                     ~~~
  E E E E E  E E E   E E E E E E  E  +E
|------------------|---------------------|
|------------------|---------------------|
|------------------|---------------------|
|------------------|---------------------|
|-----8---8-10---7-|-8---5-7---4-[5]-(5)-|
|-0-0---0------0---|---0-----0-----------|


  N.C.
    PM|   PM|   PM    PM  PM   PM      PM|   PM  PM      PM|   PM  PM
  E E E E E E E E   E E E E  E E E E   E E E E E E E E   E E E E E E E E
|-----------------|------------------|-----------------|-----------------|
|-----------------|------------------|-----------------|-----------------|
|-----------------|------------------|-----------------|-----------------|
|-----------------|------------------|-----------------|-----------------|
|-5-----5-----5---|-8---7---10---8-7-|-----5---5---5-7-|-----4---4---4-5-|
|---0-0---0-0---0-|---0---0----0-----|-8-8---8---8-----|-7-7---7---7-----|


  N.C.
    PM|   PM|   PM                           TP TP  TP   TP TP TP TP
  E E E E E E E E   E  E E  E E  E E  E   Q  Q  Q   Q    Q  Q  Q  Q
|-----------------|---------------------|--------------|-------------|
|-----------------|---------------------|--------------|-------------|
|-----------------|---------------------|--------------|-------------|
|-----------------|---------------------|--------------|-------------|
|-5-----5-----5---|-8h12-8h12-7h10-7h10-|----7--8--10--|-8--7--5--4--|
|---0-0---0-0---0-|---------------------|-8------------|-------------|


  N.C.
    PM|   PM|   PM    PM  PM   PM      PM|   PM  PM      PM|   PM  PM
  E E E E E E E E   E E E E  E E E E   E E E E E E E E   E E E E E E E E
|-----------------|------------------|-----------------|-----------------|
|-----------------|------------------|-----------------|-----------------|
|-----------------|------------------|-----------------|-----------------|
|-----------------|------------------|-----------------|-----------------|
|-5-----5-----5---|-8---7---10---8-7-|-----5---5---5-7-|-----4---4---4-5-|
|---0-0---0-0---0-|---0---0----0-----|-8-8---8---8-----|-7-7---7---7-----|


  N.C.
  Gtr I
    PM|   PM|   PM                            TP  TP  TP    TP  TP TP TP
  E E E E E E E E   E  E E  E E  E E  E   Q   Q   Q   Q     Q   Q  Q  Q
|-----------------|---------------------|----------------|---------------||
|-----------------|---------------------|----------------|---------------||
|-----------------|---------------------|----------------|---------------||
|-----------------|---------------------|----------------|---------------||
|-5-----5-----5---|-8h12-8h12-7h10-7h10-|-----7---8--10--|--8---7--5--4--||
|---0-0---0-0---0-|---------------------|-8--------------|---------------||
|
| Gtr II
|   PM|   PM|   PM                            TP  TP  TP    TP  TP TP TP
| E E E E E E E E   E  E E  E E  E E  E   Q   Q   Q   Q     Q   Q  Q  Q
|-----------------|---------------------|----------------|---------------||
|-----------------|---------------------|----------------|---------------||
|-----------------|---------------------|----------------|---------------||
|-----------------|---------------------|----------------|---------------||
|-5-----5-----5---|-8h12-8h12-7h10-7h10-|----10--12--13--|-12--10--8--7--||
|---0-0---0-0---0-|---------------------|-8--------------|---------------||


   "The path has been set.."
    N.C.
       TP  TP  TP      TP  TP  TP      TP  TP  TP    TP  TP
                                                             |--3--|
    Q  Q   Q   Q    Q  Q   Q   Q    Q  Q   Q   Q     Q   Q   E  E  E Q   4x
||----------------|---------------|---------------|----------------------||
||o---------------|---------------|---------------|---------------------o||
||----------------|---------------|---------------|----------------------||
||----------------|---------------|---------------|-12---7---7--8--7-5---||
||o----5---7---8--|----5---7---8--|----5---7---8--|---------------------o||
||--0-------------|-7-------------|-8-------------|----------------------||
|
|      TP  TP  TP      TP  TP  TP      TP  TP  TP    TP  TP
|                                                            |--3--|
|   Q  Q   Q   Q    Q  Q   Q   Q    Q  Q   Q   Q     Q   Q   E  E  E Q   4x
||----------------|---------------|---------------|----------------------||
||o---------------|---------------|---------------|-15--10--10-11-10-8--o||
||----------------|---------------|---------------|----------------------||
||----------------|---------------|---------------|----------------------||
||o----8--10--12--|----8--10--12--|----8--10--12--|---------------------o||
||--0-------------|-7-------------|-8-------------|----------------------||


 [Breakdown]
  Q=171
  D5
  Gtrs I, II
  PM--------------|   PM------|     PM--------------|   PM|
  S S S S S S S S S S S S S S S S   S S S S S S S S S S S S Q
|---------------------------------|-----------------------------|
|---------------------------------|-----------------------------|
|---------------------------------|-----------------------------|
|---------------------------------|-----------------------------|
|-0-0-0-0---0-0-0-0---0-0-0-0-0---|-0-0-0-0---0-0-0-0---0-0-7\--|
|-0-0-0-0---0-0-0-0---0-0-0-0-0---|-0-0-0-0---0-0-0-0---0-0-8\--|


    D5
    PM--------------|   PM------------------------|   PM----|
    S S S S S S S S S S S S e e   S S S S S S S S S S S S e e
||------------------------------|-----------------------------|
||o-----------------------------|-----------------------------|
||------------------------------|-----------------------------|
||------------------------------|-----------------------------|
||o-0-0-0-0---0-0-0-0---0-0-0-0-|-0-0-0-0---0-0-0-0---0-0-0-0-|
||--0-0-0-0---0-0-0-0---0-0-0-0-|-0-0-0-0---0-0-0-0---0-0-0-0-|


  D5
  PM--------------|   PM--------------------------------|
  S S S S S S S S S S S S e e   S S S S S S S S S S S S E E
|-----------------------------|------------------------------||
|-----------------------------|-----------------------------o||
|-----------------------------|------------------------------||
|-----------------------------|------------------------------||
|-0-0-0-0---0-0-0-0---0-0-0-0-|-0-0-0-0---0-0-0-0---0-0-0---o||
|-0-0-0-0---0-0-0-0---0-0-0-0-|-0-0-0-0---0-0-0-0---0-0-0----||


  D5            N.C.
  PM
  E H..         W          W          W
|-------------|----------|----------|------|
|-------------|----------|----------|------|
|-------------|----------|----------|------|
|-------------|----------|----------|------|
|-0-----------|----------|----------|------|
|-0-----------|----------|----------|------|


  N.C.
                                        Gtr I
  W          W          W          H     H
|----------|----------|----------|-------------||
|----------|----------|----------|-------------||
|----------|----------|----------|-------------||
|----------|----------|----------|-------------||
|----------|----------|----------|-------------||
|----------|----------|----------|------11\----||


   [Beatdown]
    D5
    Gtrs I, II
    PM----|      PM----------------------|
    S S S S H    S S S S   Q  S S S S Q  Q   8x
||-----------------------|-------------------||
||o----------------------|------------------o||
||-----------------------|-------------------||
||-----------------------|-------------------||
||o-0-0-0-0-0----0-0-0-0-|-0--0-0-0-0-0--0--o||
||--0-0-0-0-0----0-0-0-0-|-0--0-0-0-0-0--0---||


  N.C.
  Gtr I
  E  E  E  E  E E  E E    E E  E E E Q.
|----------------------|------------------||
|-8-11-10----10-8------|-10-8-------------||
|---------10------10-9-|------10-9-7------||
|----------------------|------------------||
|----------------------|------------------||
|----------------------|------------------||
|
| Gtr II
| E  E  E  E  E E  E E    E E  E E E Q.
|----------------------|------------------||
|----------------------|------------------||
|----------------------|------------------||
|-5--8--7-----7-5------|--7-5-------------||
|----------8-------8-7-|-------8-7-5------||
|----------------------|------------------||


   "Unfortunate as you.."
    Q=205
    N.C.
    PM--|   PM--|     PM  PM|           PM--|   PM  PM|
    E E E E E E E E   E E E E E E E E   E E E E E E E E   H        H
||------------------|-----------------|-----------------|------------------|
||o-----------------|-----------------|-----------------|------------------|
||------------------|-----------------|-----------------|-7tr10----6tr9----|
||------------------|-----------------|-----------------|------------------|
||o-------0-------0-|---0---------5-7-|-------0---0-----|------------------|
||--0-0-0-0-0-0-0-0-|-0-0-0-0-5-7-----|-0-0-0-0-0-0-0-0-|------------------|
|
|   PM--|   PM--|     PM  PM|           PM--|   PM  PM|
|   E E E E E E E E   E E E E E E E E   E E E E E E E E   H        H
||------------------|-----------------|-----------------|------------------|
||o-----------------|-----------------|-----------------|------------------|
||------------------|-----------------|-----------------|------------------|
||------------------|-----------------|-----------------|------------------|
||o-------0-------0-|---0---------5-7-|-------0---0-----|-5tr8-----4tr7----|
||--0-0-0-0-0-0-0-0-|-0-0-0-0-5-7-----|-0-0-0-0-0-0-0-0-|------------------|


  N.C.
  PM--|   PM--|     PM  PM|           PM--|   PM  PM|
  E E E E E E E E   E E E E E E E E   E E E E E E E E   H        H
|-----------------|-----------------|-----------------|--------------------||
|-----------------|-----------------|-----------------|-------------------o||
|-----------------|-----------------|-----------------|-7tr10----9tr12-----||
|-----------------|-----------------|-----------------|--------------------||
|-------0-------0-|---0---------5-7-|-------0---0-----|-------------------o||
|-0-0-0-0-0-0-0-0-|-0-0-0-0-5-7-----|-0-0-0-0-0-0-0-0-|--------------------||
|
| PM--|   PM--|     PM  PM|           PM--|   PM  PM|
| E E E E E E E E   E E E E E E E E   E E E E E E E E   H        H
|-----------------|-----------------|-----------------|--------------------||
|-----------------|-----------------|-----------------|-------------------o||
|-----------------|-----------------|-----------------|--------------------||
|-----------------|-----------------|-----------------|--------------------||
|-------0-------0-|---0---------5-7-|-------0---0-----|-5tr8-----7tr10----o||
|-0-0-0-0-0-0-0-0-|-0-0-0-0-5-7-----|-0-0-0-0-0-0-0-0-|--------------------||


  Q=222
  N.C.
     TP TP TP   TP TP TP TP   TP TP  TP TP
  Q  Q  Q  Q    Q  Q  Q  Q    Q  Q   Q  Q    H        H
|-------------|-------------|--------------|------------------|
|-------------|-------------|--------------|------------------|
|-------------|-------------|--------------|-7tr10----6tr9----|
|-------------|-------------|--------------|------------------|
|----5--4--5--|-7--5--7--8--|-7--8--10--8--|------------------|
|-0-----------|-------------|--------------|------------------|
|
|    TP TP TP   TP TP TP TP   TP TP  TP TP
| Q  Q  Q  Q    Q  Q  Q  Q    Q  Q   Q  Q    H        H
|-------------|-------------|--------------|------------------|
|-------------|-------------|--------------|------------------|
|-------------|-------------|--------------|------------------|
|-------------|-------------|--------------|------------------|
|----5--4--5--|-7--5--7--8--|-7--8--10--8--|-5tr8-----4tr7----|
|-0-----------|-------------|--------------|------------------|


  N.C.
     TP TP TP   TP TP TP TP   TP TP TP
  Q  Q  Q  Q    Q  Q  Q  Q    Q  Q  H      H        H
|-------------|-------------|------------|-------------------|
|-------------|-------------|------------|-------------------|
|-------------|-------------|------------|-7tr10----9tr12----|
|-------------|-------------|------------|-------------------|
|----5--4--5--|-7--5--7--8--|-7--5--4----|-------------------|
|-0-----------|-------------|------------|-------------------|
|
|    TP TP TP   TP TP TP TP   TP TP TP
| Q  Q  Q  Q    Q  Q  Q  Q    Q  Q  H      H        H
|-------------|-------------|------------|-------------------|
|-------------|-------------|------------|-------------------|
|-------------|-------------|------------|-------------------|
|-------------|-------------|------------|-------------------|
|----5--4--5--|-7--5--7--8--|-7--5--4----|-5tr8-----7tr10----|
|-0-----------|-------------|------------|-------------------|


 "Leaders are hard to.."
  N.C.
  Gtrs I, II
    PM|   PM|   PM    PM  PM   PM      PM|   PM  PM      PM|   PM  PM
  E E E E E E E E   E E E E  E E E E   E E E E E E E E   E E E E E E E E
|-----------------|------------------|-----------------|-----------------|
|-----------------|------------------|-----------------|-----------------|
|-----------------|------------------|-----------------|-----------------|
|-----------------|------------------|-----------------|-----------------|
|-5-----5-----5---|-8---7---10---8-7-|-----5---5---5-7-|-----4---4---4-5-|
|---0-0---0-0---0-|---0---0----0-----|-8-8---8---8-----|-7-7---7---7-----|


  N.C.
    PM|   PM|   PM                           TP TP  TP   TP TP TP TP
  E E E E E E E E   E  E E  E E  E E  E   Q  Q  Q   Q    Q  Q  Q  Q
|-----------------|---------------------|--------------|-------------|
|-----------------|---------------------|--------------|-------------|
|-----------------|---------------------|--------------|-------------|
|-----------------|---------------------|--------------|-------------|
|-5-----5-----5---|-8h12-8h12-7h10-7h10-|----7--8--10--|-8--7--5--4--|
|---0-0---0-0---0-|---------------------|-8------------|-------------|


  N.C.
    PM|   PM|   PM    PM  PM   PM      PM|   PM  PM      PM|   PM  PM
  E E E E E E E E   E E E E  E E E E   E E E E E E E E   E E E E E E E E
|-----------------|------------------|-----------------|-----------------|
|-----------------|------------------|-----------------|-----------------|
|-----------------|------------------|-----------------|-----------------|
|-----------------|------------------|-----------------|-----------------|
|-5-----5-----5---|-8---7---10---8-7-|-----5---5---5-7-|-----4---4---4-5-|
|---0-0---0-0---0-|---0---0----0-----|-8-8---8---8-----|-7-7---7---7-----|


                                                                   Q=154
  N.C.
  Gtr I
    PM|   PM|   PM                            TP  TP  TP    TP  TP TP TP
  E E E E E E E E   E  E E  E E  E E  E   Q   Q   Q   Q     Q   Q  Q  Q
|-----------------|---------------------|----------------|---------------||
|-----------------|---------------------|----------------|---------------||
|-----------------|---------------------|----------------|---------------||
|-----------------|---------------------|----------------|---------------||
|-5-----5-----5---|-8h12-8h12-7h10-7h10-|-----7---8--10--|--8---7--5--4--||
|---0-0---0-0---0-|---------------------|-8--------------|---------------||
|
| Gtr II
|   PM|   PM|   PM                            TP  TP  TP    TP  TP TP TP
| E E E E E E E E   E  E E  E E  E E  E   Q   Q   Q   Q     Q   Q  Q  Q
|-----------------|---------------------|----------------|---------------||
|-----------------|---------------------|----------------|---------------||
|-----------------|---------------------|----------------|---------------||
|-----------------|---------------------|----------------|---------------||
|-5-----5-----5---|-8h12-8h12-7h10-7h10-|----10--12--13--|-12--10--8--7--||
|---0-0---0-0---0-|---------------------|-8--------------|---------------||


   Outro
    N.C.
       PM--|    PM--|
       |-3-|    |-3-|                         |-3--|
    Q  E E E Q  E E E     E.  E.  E   E.  E.  S  S S
||--------------------|------------------------------|
||o-------------------|------------------------------|
||--------------------|------------------------------|
||--------------------|------------------------------|
||o-5--------5--------|--/8---7---8-/10---8---7h=8p0-|
||-----0-0-0----0-0-0-|------------------------------|
|
|      PM--|    PM--|
|      |-3-|    |-3-|                         |-3--|
|   Q  E E E Q  E E E     E.  E.  E   E.  E.  S  S S
||--------------------|------------------------------|
||o-------------------|------------------------------|
||--------------------|------------------------------|
||--------------------|------------------------------|
||o-8--------8--------|-/12--10--12-/13--12--10h12p0-|
||-----0-0-0----0-0-0-|------------------------------|


     PM--|                     PM--|
     |-3-|  |-3--| |-3--|      |-3-| |-3--| |-3-|
  Q  E E E  E  E E E  E E   Q  E E E E  E E E E E
|-------------------------|-----------------------|
|-------------------------|-----------------------|
|-------------------------|-----------------------|
|-------------------------|-----------------------|
|-----------7--8---5--7-5-|----------5--7---4-5-4-|
|-8--8-8-8-------8--------|-7--7-7-7------7-------|
|
|    PM--|       PM            PM--|      PM
|    |-3-|  |-3--| |-3--|      |-3-| |-3--| |-3-|
| Q  E E E  E  E E E  E E   Q  E E E E  E E E E E
|-------------------------|-----------------------|
|-------------------------|-----------------------|
|-------------------------|-----------------------|
|-------------------------|-----------------------|
|----------10-12---8-10-8-|----------8-10---7-8-7-|
|-8--8-8-8-------8--------|-7--7-7-7------7-------|


  N.C.
  Gtr I
     PM--|    PM--|         PM      PM
     |-3-|    |-3-|    |-3--|  |-3--|  |--3--|
  Q  E E E Q  E E E    E  E E  E  E E  E  E  E  Q
|-------------------|------------------------------|
|-------------------|------------------------------|
|-------------------|------------------------------|
|-------------------|------------------------------|
|-5--------5--------|--8-10---10-12----8-10--8--7--|
|----0-0-0----0-0-0-|-------0-------0--------------|
|
|    PM--|    PM--|         PM      PM
|    |-3-|    |-3-|    |-3--|  |-3--|  |--3--|
| Q  E E E Q  E E E    E  E E  E  E E  E  E  E  Q
|-------------------|------------------------------|
|-------------------|------------------------------|
|-------------------|------------------------------|
|-------------------|------------------------------|
|-8--------8--------|-12-13---13-15---12-13-12-10--|
|----0-0-0----0-0-0-|-------0-------0--------------|


               |--3--|                |--3--|
  Q    Q   Q   E  E  E   Q    Q   Q   E  E  E
|----------------------|-------------------------||
|----------------------|------------------------o||
|----------------------|-------------------------||
|----------------------|-------------------------||
|----/12--10---8-10--8-|----/10---8---7--8--7---o||
|-8--------------------|-7-----------------------||
|
|              |--3--|                |--3--|
| Q    Q   Q   E  E  E   Q    Q   Q   E  E  E
|----------------------|-------------------------||
|----------------------|------------------------o||
|----------------------|-------------------------||
|----------------------|-------------------------||
|----/15--13--12-13-12-|----/13--12--10-12-10---o||
|-8--------------------|-7-----------------------||


  D5
  Gtrs I, II
  W          +W           +W           +W
|----------|------------|------------|--------|
|----------|------------|------------|--------|
|----------|------------|------------|--------|
|-0--------|-(0)--------|-(0)--------|-(0)----|
|-0--------|-(0)--------|-(0)--------|-(0)----|
|-0--------|-(0)--------|-(0)--------|-(0)----|


  D5
  +W           +W
|------------|--------*|
|------------|--------*|
|------------|--------*|
|-(0)--------|-(0)----*|
|-(0)--------|-(0)----*|
|-(0)--------|-(0)----*|


Duration Legend
---------------
W - whole; H - half; Q - quarter; E - 8th; S - 16th; T - 32nd; X - 64th; a - acciaccatura
+ - note tied to previous; . - note dotted; .. - note double dotted
Uncapitalized letters represent notes that are staccato (1/2 duration)
Irregular groupings are notated above the duration line
Duration letters will always appear directly above the note/fret number it represents the
duration for.  Duration letters with no fret number below them represent rests.  Multi-
bar rests are notated in the form Wxn, where n is the number of bars to rest for.  Low
melody durations appear below the staff

Tablature Legend
----------------
 h   - hammer-on
 p   - pull-off
 b   - bend
 pb  - pre-bend
 r   - bend release (if no number after the r, then release immediately)
 /\  - slide into or out of (from/to "nowhere")
 s   - legato slide
 S   - shift slide
  - natural harmonic
[n]  - artificial harmonic
n(n) - tapped harmonic
 ~   - vibrato
 tr  - trill
 T   - tap
 TP  - trem. picking
 PM  - palm muting
\n/  - tremolo bar dip; n = amount to dip
 \n  - tremolo bar down
 n/  - tremolo bar up
/n\  - tremolo bar inverted dip
 =   - hold bend; also acts as connecting device for hammers/pulls
 <>  - volume swell (louder/softer)
 x   - on rhythm slash represents muted slash
 o   - on rhythm slash represents single note slash

Misc Legend
-----------
 |  - bar
||  - double bar
||o - repeat start
o|| - repeat end
*|  - double bar (ending)
 :  - bar (freetime)
 $  - Segno
 &  - Coda
Tempo markers -  = BPM(8/16=s8/s16), where s8 = swing 8ths, s16 = swing 16ths


Добавлено: 25.05.2012
Другие материалы по этой песне:

Страница создана 27.03.2012
http://primanota.ru/as-blood-runs-black/these-dying-days-chords.htm
Привет, Гость.
Предлагаем пройти революционный курс по гитаре.
Подарок от PrimaNota.Ru, забирай!