PrimaNota.ru - самый крупный в мире бесплатный архив песенных текстов, аккордов, табулатур и нот


As Blood Runs Black - Chug Chug - таба, видео

Регистрация Запомнить меня
Войти через:  Facebook Google Twitter Vk Yandex Mail.ru

As Blood Runs Black - Chug Chug - таба, видео

Печатать
Просмотров: 141
AS BLOOD RUNS BLACK - CHUG CHUG

D---------------------------------------------------------------------------|
A---------------------------------------------------------------------------|
F---------------------------------------------------------------------------|
C-0--3--2--5--7--3--2--3----------------------------------------------------|
G-0--3--2--5--7--3--2--3----------------------------------------------------|
C-0--3--2--5--7--3--2--3----------------------------------------------------|

D---------------------------------------------------------------------------|
A---------------------------------------------------------------------------|
F---------------[X4]--------------------------------------------------------|
C-00----------------00--------------00------------------00---------------*--|
G-00-5-5-4-4-5-5----00-8-8-7-7-8-8--00-12-12-10-10-8-8--00-7-7-5-5-7-7-8----|
C-00----------------00--------------00------------------00------------------|

D---------------------------------------------------------------------------|
A---------------------------------------------------------------------------|
F---------------------------------------------------------------------------|
C--0--0000-0-00-00-0-00-00000----slide-down-from-up-the-fretboard-----------|
G--0--0000-0-00-00-0-00-00000-----------------------------------------------|
C--0--0000-0-00-00-0-00-00000-----------------------------------------------|

D---------------------------------------------------------------------------|
A----------------------------------------------------------------------[X5]-|
F--------------------------------------------------------------------8*-----|
C-0------------------0------------------3------------------2----------------|
G-0-8-7-8-10-8-7/8/7-0-8-7-8-10-8-7/8/7-3-8-7-8-10-8-7/8/7-2-8-7-8--8-------|
C-0------------------0------------------3------------------2----------------|

D---------------------------------------------------------------------------|
A---------------------------------------------------------------------------|
F---------------------------------------------------------------------------|
C-0--3--2--5--7--3--2--3----------------------------------------------------|
G-0--3--2--5--7--3--2--3----------------------------------------------------|
C-0--3--2--5--7--3--2--3----------------------------------------------------|

D----------------------------------------------------------------------------|
A----------------------------------------------------------------------------|
F------------[X4]--------------------[X4]------------------------[X4]--------|
C-00-------------5-3-2-3--00-------------55-33-22-33--00-------------5-3-2-3-|
G-00-5-5-4-4-5-5-5-3-2-3--00-5-5-4-4-5-5-55-33-22-33--00-5-5-4-4-5-5-5-3-2-3-|
C-00-------------5-3-2-3--00-------------55-33-22-33--00-------------5-3-2-3-|

D---------------------------------------------------------------------------|
A---------------------------------------------------------------------------|
F--------------------------[X8]---------------------------------------------|
C-0--3--2--5--7--3--2--3----------------------------------------------------|
G-0--3--2--5--7--3--2--3----------------------------------------------------|
C-0--3--2--5--7--3--2--3----------------------------------------------------|


D---------------------------------------------------------------------------|
A---------------------------------------------------------------------------|
F---------------------------------------------------------------------------|
C-000-000---000--00------000-000---000--0-0---------------------------------|
G-000-000---000--00------000-000---000--0-0---------------------------------|
C-000-000---000--00------000-000---000--0-0---------------------------------|

D---------------------------------------------------------------------------|
A---------------------------------------------------------------------------|
F---------------------------------------------------------------------------|
C-000-000---------------------000-000--000--00-000-000----------------------|
G-000-000-5-4-0-8~-7-5-7~-5-4-000-000--000--00-000-000-5-4-0-8~-7-5-7~-5-4--|
C-000-000---------------------000-000--000--00-000-000----------------------|

D--------------------------------------------------------------------------|
A--------------------------------------------------------------------------|
F--------------------------------------------------------------------------|
C-0-0-0----------------------0-0-0-0---------------------------------------|
G-0-0-0-5-4-0-8~-7-5-7~-5-4--0-0-0-0-5-4-0-8~-7-5-7~-5-4-------------------|
C-0-0-0----------------------0-0-0-0---------------------------------------|

D--------------------------------------------------------------------------|
A--------------------------------------------------------------------------|
F--------------------------------------------------------------------------|
C-0-0-0----------0-0-0-0----00000000000000---------------------------------|
G-0-0-0----------0-0-0-0----00000000000000---------------------------------|
C-0-0-0----------0-0-0-0----00000000000000---------------------------------|

D--------------------------------------------------------------------------|
A--------------------------------------------------------------------------|
F--------------------------[x2]--------------------------------------------|
C-0-0-0-------------------------0-0-0-0------------------------------------|
G-0-0-0-5-4-0-8~-7-5-7~-5-4-----0-0-0-0-5-4-0-8~-7-5-7~-5-4----------------|
C-0-0-0-------------------------0-0-0-0------------------------------------|

Did the best I could. Sorry I got lazy with be4 the breakdown solo part =/
 HAVE FUN :D

AIM=wowalexuranidiot
www.myspace.com/dgafalex
zeroskater558@hotmail.com
Добавлено: 07.04.2012
Другие материалы по этой песне:
  • Аккорды и текст

Страница создана 24.03.2012
http://primanota.ru/as-blood-runs-black/chug-chug-chords.htm
Привет, Гость.
Предлагаем пройти революционный курс по гитаре.
Подарок от PrimaNota.Ru, забирай!