PrimaNota.ru - самый крупный в мире бесплатный архив песенных текстов, аккордов, табулатур и нот


As Blood Runs Black - Pouring Reign - текст песни, таба, бас-таба, видео

Регистрация Запомнить меня
Войти через:  Facebook Google Twitter Vk Yandex Mail.ru

As Blood Runs Black - Pouring Reign - текст песни, таба, бас-таба, видео

Печатать
Просмотров: 394
POURING REIGN
BY AS BLOOD RUNS BLACK
Drop C Tuning [CGCFAD] LOW TO HIGH.

its my first tab. i think i left a part out but the rest is pretty much 100% correct

D[-----------0------------------------0-------------0------]
A[---------8---8----------10--------12--12--------13-13----]
F[-------0-------0-------0---------0------0------0------0--]
C[-----5-----------5---7---------10--------10--10--------10]
G[--7----------------9---------12------------12------------]
C[---------------------------------------------------------]



D[-----------0---------------0]
A[---------5---5-----------3--]
F[-------0-------0-------0----]
C[-----5-----------5---4------]
G[---3---------------5--------]
C[----------------------------]
Добавлено: 27.07.2012
Другие материалы по этой песне:

Страница создана 07.03.2012
http://primanota.ru/as-blood-runs-black/pouring-reign-chords.htm
Привет, Гость.
Предлагаем пройти революционный курс по гитаре.
Подарок от PrimaNota.Ru, забирай!