PrimaNota.ru - самый крупный в мире бесплатный архив песенных текстов, аккордов, табулатур и нот


As Blood Runs Black - Legends Never Die - текст песни, таба, видео

Регистрация Запомнить меня
Войти через:  Facebook Google Twitter Vk Yandex Mail.ru

As Blood Runs Black - Legends Never Die - текст песни, таба, видео

Печатать
Просмотров: 204
im working on the rest but
you can mess with it if youd like

gtr 1

d---------------------------------------------|
a---------------------------------------------|
f---------------------------------------------|
C-----7---------------------------------------|
G-----------8---5---8---7----10h12-8h10p8-7---|
C-000----00---0---0---0---00------------------|
  ...    ..   .   .   .   ..

gtr 2
d---------------------------------------------|
a---------------------------------------------|
f---------------------------------------------|
c---------------------------------------------|
g----------------------------10h12-8h10p8-7---|
c---------------------------------------------|


gtr 1
d-----------------------------------------------|
a-----------------------------------------------|
f-----------------------------------------------|
c-------7---------------------------------------|
g--------------8---5----8---7----10h12-8h10-7---|
c--000-----00---0----0----0----00---------------|

gtr 2
d--------------------------------------------|
a--------------------------------------------|
f--------------------------------------------|
c-0----------------------------8h10-8h7-5----|
g-0------------------------------------------|
c-0------------------------------------------|
  * palm mute short release
    and mute after

gtr 1&2

d---------------------------------------------|X2
a---------------------------------------------|
f---------------------------------------------|
c------7--------------------------------------|
g-----------8---5---8---7------10h12-8h10-7---|
c-888----88---8---8---8-----88----------------|

gtr 2 same on 1st time through then on second time
he does this at the end
d---------------------------------------------|
a---------------------------------------------|
f---------------------------------------------|
c--------------------------------8h10-7h8-5---|
g---------------------------------------------|
c---------------------------------------------|

gtr 1&2
d---------------------------------------------|X2
a---------------------------------------------|
f---------------------------------------------|
c------7--------------------------------------|
g-----------8---5----8--7-------10h12-8h10-7--|
c-555----55---5----5---5---55-----------------|

while guitar 2 does this at the end of the riff  \
in harmony.                                       \
c------------------------------8h10-7h8-5-----------|      \
g---------------------------------------------------|      /
c---------------------------------------------------|     /

d----------------------------------------------------------|X4
a----------------------------------------------------------|
f----------------------------------------------------------|
c--------7-------------------------------------------------|
g---------------8----5----8---7----------------------------| second and fourth times do
c--000------00----0----0----0----000-000-000------000-0-7--|


verse:
d---------------------------------------------|X?
a---------------------------------------------|
f---------------------------------------------|
c---------------------------------------------|
g------5----0---4--5--8--7--------------------|
c--000----0---7--7---7--7---7-----------------|

then


d---------------------------------------------|
a---------------------------------------------|
f---------------------------------------------|
c---------------------------------------------|
g------5----0---4---5----10---8---------------|
c--000----0---7---7---7-----7-----------------|

d--------------------------------------------|
a--------------------------------------------|
f--------------------------------------------|
c--------------------------------------------|
g-----5554445588777--------------------------|
c--------------------------------------------|


ehh its a lil rough but hey its a start and my 1st tab so
yeah dont chew me out.
the verse is rough but im getting there.

breakdown is a self learn its
d------------------------------------------------------|
a------------------------------------------------------|
f------------------------------------------------------|
c-0000--a lot of times. then 11111---then back to 0000-|
g-0000-----------------------11111----------------0000-|
c-0000-----------------------11111----------------0000-|
  ....                       .....


listen to song to get the breakdown rythm
Добавлено: 12.04.2012
Другие материалы по этой песне:

Страница создана 12.04.2012
http://primanota.ru/as-blood-runs-black/legends-never-die-chords.htm
Привет, Гость.
Предлагаем пройти революционный курс по гитаре.
Подарок от PrimaNota.Ru, забирай!