PrimaNota.ru - самый крупный в мире бесплатный архив песенных текстов, аккордов, табулатур и нот


Annihilator - Punctured - текст песни, таба, видео

Регистрация Запомнить меня
Войти через:  Facebook Google Twitter Vk Yandex Mail.ru

Annihilator - Punctured - текст песни, таба, видео

Печатать
Просмотров: 172
Уроки эстрадного вокала в Санкт-Петербурге
Авторы музыки: Jeff Waters
Авторы текста: Big John Bates, Jeff Waters
Annihilator - Punctured

tabbed by ol753
www.annihilatormetal.com
ol753_357lo@yahoo.co.uk

Tuning - D A D G B E


Gtr 1
play 4 times
|------------------------|
|------------------------|
|-------------------0----|
|-----6-6---------6-6----|
|---5---5-------5---5----|
|-0-----2-----3-----5----|


Gtr 2
3rd time
play twice
|---------------------|
|---------------------|
|---------------------|
|---------------------|
|-0---2-----3----5----|
|-0---2-----3----5----|


Both Gtrs
play 3 times
|------------------------|
|------------------------|
|-------------------0----|
|-----6-6---------6-6----|
|---5---5-------5---5----|
|-0-----2-----3-----5----|


Both Gtrs
  PM------------------|
|------------------------------------|
|------------------------------------|
|------------------------------------|
|------------------------------------|
|------------------------------------|
|-0-0-0-0-0-0-0-0-0-0-0-0-0-0-0-0----|


Gtr 3
|-----------------------------------|
|-----------------------------------|
|----------------------------0------|
|-----6-----6--------6-----6---6----|
|---5-----5--------5-----5----------|
|-0-----2------2-3-----5------------|


Both Gtrs
|--------------------------------------------------------------------|
|--------------------------------------------------------------------|
|--------------------------------------------------------------------|
|-6-6-6-6-6-6-6-6-6-6-6-6-6-6-6-6-6-6-6-6-6-6-6-6-6-6-6-6-6-6--------|
|-5-5-5-5-5-5-5-5-5-5-5-5-5-5-5-5-5-5-5-5-5-5-5-5-5-5-5-5-5-5-6-5----|
|-0-0-0-2-2-2-0-2-3-3-3-5-5-5-5-5-0-0-0-2-2-2-0-2-3-3-3-5-5-5-6-5----|


|--------------------------------------------------------------------|
|---------------------------------3-3-3-3-3-3-3-3-2-2-2-2-2-2-2-2----|
|---------------------------------2-2-2-2-2-2-2-2-2-2-2-2-2-2-2-2----|
|-6-6-6-6-6-6-6-6-6-6-6-6-6-6-6-6-2-2-2-2-2-2-2-2-2-2-2-2-2-2-2-2----|
|-5-5-5-5-5-5-5-5-5-5-5-5-5-5-5-5-0-0-0-0-0-0-0-0-0-0-0-0-0-0-0-0----|
|-0-0-0-2-2-2-0-2-3-3-3-5-5-5-5-5------------------------------------|


Verse
Both Gtrs
play 4 times
|-----------------------------------|
|-----------------------------------|
|----------------------------0------|
|-----6-----6--------6-----6---6----|
|---5-----5--------5-----5----------|
|-0-----2------2-3-----5------------|


Both Gtrs
|--------------------------------------------------------------------|
|--------------------------------------------------------------------|
|--------------------------------------------------------------------|
|-6-6-6-6-6-6-6-6-6-6-6-6-6-6-6-6-6-6-6-6-6-6-6-6-6-6-6-6-6-6--------|
|-5-5-5-5-5-5-5-5-5-5-5-5-5-5-5-5-5-5-5-5-5-5-5-5-5-5-5-5-5-5-6-5----|
|-0-0-0-2-2-2-0-2-3-3-3-5-5-5-5-5-0-0-0-2-2-2-0-2-3-3-3-5-5-5-6-5----|


|--------------------------------------------------------------------|
|---------------------------------3-3-3-3-3-3-3-3-2-2-2-2-2-2-2-2----|
|---------------------------------2-2-2-2-2-2-2-2-2-2-2-2-2-2-2-2----|
|-6-6-6-6-6-6-6-6-6-6-6-6-6-6-6-6-2-2-2-2-2-2-2-2-2-2-2-2-2-2-2-2----|
|-5-5-5-5-5-5-5-5-5-5-5-5-5-5-5-5-0-0-0-0-0-0-0-0-0-0-0-0-0-0-0-0----|
|-0-0-0-2-2-2-0-2-3-3-3-5-5-5-5-5------------------------------------|


Chorus
Both Gtrs
|-------------------------------------------------------------|
|-------------------------------------------------------------|
|-------------------------------------------------------------|
|-------------------------------------------------------------|
|-0-3-2-0-3-2-0-3-2-0-6-5-3p0-0--0-3-2-0-3-2-0-5-3-0-3-2-0----|
|-0-3-2-0-3-2-0-3-2-0-6-5-3p0-0--0-3-2-0-3-2-0-5-3-0-3-2-0----|


|--------------------------------------------------------------|
|--------------------------------------------------------------|
|--------------------------------------------------------------|
|--------------------------------------------------------------|
|-0-3-2-0-3-2-0-3-2-0-6-5-3p0-0--0-3-2-0-3-2-0--1-1-1-3-1-3----|
|-0-3-2-0-3-2-0-3-2-0-6-5-3p0-0--0-3-2-0-3-2-0--1-1-1-3-1-3----|


|-------------------------------------------------------------|
|-------------------------------------------------------------|
|-------------------------------------------------------------|
|-------------------------------------------------------------|
|-0-3-2-0-3-2-0-3-2-0-6-5-3p0-0--0-3-2-0-3-2-0-5-3-0-3-2-0----|
|-0-3-2-0-3-2-0-3-2-0-6-5-3p0-0--0-3-2-0-3-2-0-5-3-0-3-2-0----|

                                                PM--------|
|--------------------------------------------------------------|
|--------------------------------------------------------------|
|--------------------------------------------------------------|
|--------------------------------------------------------------|
|-0-3-2-0-3-2-0-3-2-0-6-5-3p0-0--0-3-2-0-3-2-0-----------------|
|-0-3-2-0-3-2-0-3-2-0-6-5-3p0-0--0-3-2-0-3-2-0--1-1-1-1-1-1----|


Both Gtrs
play 4 times
|-----------------------------------|
|-----------------------------------|
|----------------------------0------|
|-----6-----6--------6-----6---6----|
|---5-----5--------5-----5----------|
|-0-----2------2-3-----5------------|


Gtr 3
play 4 times
|-8-----5---------7---4------|
|-6-----6-----------6---6----|
|-7-----7-------7------------|
|----------------------------|
|----------------------------|
|----------------------------|


Verse
Both Gtrs
play twice
|-----------------------------------|
|-----------------------------------|
|----------------------------0------|
|-----6-----6--------6-----6---6----|
|---5-----5--------5-----5----------|
|-0-----2------2-3-----5------------|


Gtr 3
play twice
|---0-----0-------0-----4----|
|-----6-----6-------6--------|
|-------7-------------7------|
|-0-------------0------------|
|----------------------------|
|----------------------------|


Both Gtrs
|--------------------------------------------------------------------|
|--------------------------------------------------------------------|
|--------------------------------------------------------------------|
|-6-6-6-6-6-6-6-6-6-6-6-6-6-6-6-6-6-6-6-6-6-6-6-6-6-6-6-6-6-6--------|
|-5-5-5-5-5-5-5-5-5-5-5-5-5-5-5-5-5-5-5-5-5-5-5-5-5-5-5-5-5-5-6-5----|
|-0-0-0-2-2-2-0-2-3-3-3-5-5-5-5-5-0-0-0-2-2-2-0-2-3-3-3-5-5-5-6-5----|


|--------------------------------------------------------------------|
|---------------------------------3-3-3-3-3-3-3-3-2-2-2-2-2-2-2-2----|
|---------------------------------2-2-2-2-2-2-2-2-2-2-2-2-2-2-2-2----|
|-6-6-6-6-6-6-6-6-6-6-6-6-6-6-6-6-2-2-2-2-2-2-2-2-2-2-2-2-2-2-2-2----|
|-5-5-5-5-5-5-5-5-5-5-5-5-5-5-5-5-0-0-0-0-0-0-0-0-0-0-0-0-0-0-0-0----|
|-0-0-0-2-2-2-0-2-3-3-3-5-5-5-5-5------------------------------------|


Repeat Chorus


Gtr 1
|-------------------------------------------------------------|
|-------------------------------------------------------------|
|-------------------------------------------------------------|
|-------------------------------------------------------------|
|-0-3-2-0-3-2-0-3-2-0-6-5-3p0-0--0-3-2-0-3-2-0-5-3-0-3-2-0----|
|-0-3-2-0-3-2-0-3-2-0-6-5-3p0-0--0-3-2-0-3-2-0-5-3-0-3-2-0-\--|


|--------------------------------------------------------------|
|--------------------------------------------------------------|
|--------------------------------------------------------------|
|--------------------------------------------------------------|
|-0-3-2-0-3-2-0-3-2-0-6-5-3p0-0--0-3-2-0-3-2-0--1-1-1-3-1-3----|
|-0-3-2-0-3-2-0-3-2-0-6-5-3p0-0--0-3-2-0-3-2-0--1-1-1-3-1-3----|


|-------------------------------------------------------------|
|-------------------------------------------------------------|
|-------------------------------------------------------------|
|-------------------------------------------------------------|
|-0-3-2-0-3-2-0-3-2-0-6-5-3p0-0--0-3-2-0-3-2-0-5-3-0-3-2-0----|
|-0-3-2-0-3-2-0-3-2-0-6-5-3p0-0--0-3-2-0-3-2-0-5-3-0-3-2-0-\--|

                                                PM--------|
|--------------------------------------------------------------|
|--------------------------------------------------------------|
|--------------------------------------------------------------|
|--------------------------------------------------------------|
|-0-3-2-0-3-2-0-3-2-0-6-5-3p0-0--0-3-2-0-3-2-0-----------------|
|-0-3-2-0-3-2-0-3-2-0-6-5-3p0-0--0-3-2-0-3-2-0--1-1-1-1-1-1----|


Gtr 2
play twice
|------------------------------------|
|-6---------9---------8---------7----|
|-7--------10---------9---------8----|
|-7--------10---------9---------8----|
|-5---------8---------7---------6----|
|------------------------------------|


Both Gtrs
|-------------------------------------------------------------|
|-------------------------------------------------------------|
|-------------------------------------------------------------|
|-------------------------------------------------------------|
|-0-3-2-0-3-2-0-3-2-0-6-5-3p0-0--0-3-2-0-3-2-0-5-3-0-3-2-0----|
|-0-3-2-0-3-2-0-3-2-0-6-5-3p0-0--0-3-2-0-3-2-0-5-3-0-3-2-0-\--|


|--------------------------------------------------------------|
|--------------------------------------------------------------|
|--------------------------------------------------------------|
|--------------------------------------------------------------|
|-0-3-2-0-3-2-0-3-2-0-6-5-3p0-0--0-3-2-0-3-2-0--1-1-1-3-1-3----|
|-0-3-2-0-3-2-0-3-2-0-6-5-3p0-0--0-3-2-0-3-2-0--1-1-1-3-1-3----|


|-------------------------------------------------------------|
|-------------------------------------------------------------|
|-------------------------------------------------------------|
|-------------------------------------------------------------|
|-0-3-2-0-3-2-0-3-2-0-6-5-3p0-0--0-3-2-0-3-2-0-5-3-0-3-2-0----|
|-0-3-2-0-3-2-0-3-2-0-6-5-3p0-0--0-3-2-0-3-2-0-5-3-0-3-2-0-\--|

                                                PM--------|
|--------------------------------------------------------------|
|--------------------------------------------------------------|
|--------------------------------------------------------------|
|--------------------------------------------------------------|
|-0-3-2-0-3-2-0-3-2-0-6-5-3p0-0--0-3-2-0-3-2-0-----------------|
|-0-3-2-0-3-2-0-3-2-0-6-5-3p0-0--0-3-2-0-3-2-0--1-1-1-1-1-1----|


Both Gtrs
play 4 times
  PM----------------------------------------|
|------------------------------------------------|
|------------------------------------------------|
|------------------------------------------------|
|------------------------------------------------|
|------------------------------------------------|
|-0-0-0--0-0-0-0-0--0-0-0-0-0--0-0-0-0-0--0-0----|


Both Gtrs
                                    PM--|
|-------------------------------------------|
|-------------------------------------------|
|-------------------------------------------|
|-------------------------------------------|
|-------------------------------------------|
|-5---------3--------6---------1----1-1-1---|


  PM--|     PM------|     PM------|     PM------|
|----------------------------------------------------------|
|----------------------------------------------------------|
|-------<5>-----------<5>-----------<5>--------------------|
|----------------------------------------------------------|
|-------------------------------------------------6-3-4----|
|-0-0-0-----0-0-0-0-0-----0-0-0-0-0-----0-0-0-0-0-6-3-4----|


                                   PM--|
|-------------------------------------------|
|-------------------------------------------|
|-------------------------------------------|
|-------------------------------------------|
|-------------------------------------------|
|-5---------3--------6--------8----8-8-8----|


Both Gtrs
play twice 
  PM--|     PM------|     PM------|     PM------|
|----------------------------------------------------------|
|----------------------------------------------------------|
|-------<5>-----------<5>-----------<5>--------------------|
|----------------------------------------------------------|
|-------------------------------------------------6-3-4----|
|-0-0-0-----0-0-0-0-0-----0-0-0-0-0-----0-0-0-0-0-6-3-4----|


Both Gtrs
play 3 times
  PM-----------------------------------|
|-------------------------------------------------|
|-------------------------------------------------|
|--------------------------------------------0----|
|------------------------------------------6------|
|----------------------------------------5--------|
|-0-0-0--0-0-0-0-0--0-0-0-0-0--0-0-0-0-0----------|


4th time
  PM-----------------------------------------|
|-------------------------------------------------|
|-------------------------------------------------|
|-------------------------------------------------|
|-------------------------------------------------|
|-------------------------------------------------|
|-0-0-0--0-0-0-0-0--0-0-0-0-0--0-0-0-0-0-0-0-0----|


Gtr 3
play 4 times
     PM
|--------------|
|-6----6--5----|
|-5----5--5----|
|----0---------|
|--------------|
|--------------|


Gtr 3
|---------------------------------------------------------------------------|
|-----------7b8--[7]--------------------------------------------------------|
|-5h7-7-7p5-------------5h7-7-7p5-7b8-----7b8--7-[7]b8-[7]-[7]b8-7--5--3----|
|---------------------------------------------------------------------------|
|---------------------------------------------------------------------------|
|---------------------------------------------------------------------------|


|---------------------|
|---------------------|
|-2h=3p2---2----------|
|--------5---5-5-4----|
|---------------------|
|---------------------|


Gtr 1
play 4 times
|------------------------|
|------------------------|
|-------------------0----|
|-----6-6---------6-6----|
|---5---5-------5---5----|
|-0-----2-----3-----5----|


Gtr 2
3rd time
play twice
|---------------------|
|---------------------|
|---------------------|
|---------------------|
|-0---2-----3----5----|
|-0---2-----3----5----|


Both Gtrs
|------------------------|
|------------------------|
|-------------------0----|
|-----6-6---------6-6----|
|---5---5-------5---5----|
|-0-----2-----3-----5----|


Both Gtrs
  PM------------------|
|------------------------------------|
|------------------------------------|
|------------------------------------|
|------------------------------------|
|------------------------------------|
|-0-0-0-0-0-0-0-0-0-0-0-0-0-0-0-0----|


Gtr 3
|-----------------------------------|
|-----------------------------------|
|----------------------------0------|
|-----6-----6--------6-----6---6----|
|---5-----5--------5-----5----------|
|-0-----2------2-3-----5------------|


Both Gtrs
play twice
|--------------------------------------------------------------------|
|--------------------------------------------------------------------|
|--------------------------------------------------------------------|
|-6-6-6-6-6-6-6-6-6-6-6-6-6-6-6-6-6-6-6-6-6-6-6-6-6-6-6-6-6-6--------|
|-5-5-5-5-5-5-5-5-5-5-5-5-5-5-5-5-5-5-5-5-5-5-5-5-5-5-5-5-5-5-6-5----|
|-0-0-0-2-2-2-0-2-3-3-3-5-5-5-5-5-0-0-0-2-2-2-0-2-3-3-3-5-5-5-6-5----|


|--------------------------------------------------------------------|
|---------------------------------3-3-3-3-3-3-3-3-2-2-2-2-2-2-2-2----|
|---------------------------------2-2-2-2-2-2-2-2-2-2-2-2-2-2-2-2----|
|-6-6-6-6-6-6-6-6-6-6-6-6-6-6-6-6-2-2-2-2-2-2-2-2-2-2-2-2-2-2-2-2----|
|-5-5-5-5-5-5-5-5-5-5-5-5-5-5-5-5-0-0-0-0-0-0-0-0-0-0-0-0-0-0-0-0----|
|-0-0-0-2-2-2-0-2-3-3-3-5-5-5-5-5------------------------------------|


Both Gtrs
|--------------------------------------|
|-3-3-3-3-3-3-3-3-2-2-2-2-2-2-2-2------|
|-2-2-2-2-2-2-2-2-2-2-2-2-2-2-2-2-7----|
|-2-2-2-2-2-2-2-2-2-2-2-2-2-2-2-2-6----|
|-0-0-0-0-0-0-0-0-0-0-0-0-0-0-0-0-5----|
|---------------------------------0----|

Gtr 1
listen for rhythms etc.
|------|
|------|
|-7----|
|-6----|
|-5----|
|-0----|

Gtr 2
|-------|
|-------|
|-13----|
|-12----|
|-11----|
|--0----|


Tablature Legend
----------------
 h   - hammer-on
 p   - pull-off
 b   - bend
 pb  - pre-bend
 r   - bend release (if no number after the r, then release immediately)
 /\  - slide into or out of (from/to "nowhere")
 s   - legato slide
 S   - shift slide
  - natural harmonic
[n]  - artificial harmonic
n(n) - tapped harmonic
 ~   - vibrato
 tr  - trill
 T   - tap
 TP  - trem. picking
 PM  - palm muting
\n/  - tremolo bar dip; n = amount to dip
 \n  - tremolo bar down
 n/  - tremolo bar up
/n\  - tremolo bar inverted dip
 =   - hold bend; also acts as connecting device for hammers/pulls
 <>  - volume swell (louder/softer)
 x   - on rhythm slash represents muted slash
 o   - on rhythm slash represents single note slash

Misc Legend
-----------
 |  - bar
||  - double bar
||o - repeat start
o|| - repeat end
*|  - double bar (ending)
 :  - bar (freetime)
 $  - Segno
 &  - Coda
Tempo markers -  = BPM(8/16=s8/s16), where s8 = swing 8ths, s16 = swing 16ths
Добавлено: 06.06.2012
Другие материалы по этой песне:

Страница создана 09.05.2012
http://primanota.ru/annihilator/punctured-chords.htm
Привет, Гость.
Предлагаем пройти революционный курс по гитаре.
Подарок от PrimaNota.Ru, забирай!