PrimaNota.ru - самый крупный в мире бесплатный архив песенных текстов, аккордов, табулатур и нот


Annihilator - Denied - текст песни, таба, видео

Регистрация Запомнить меня
Войти через:  Facebook Google Twitter Vk Yandex Mail.ru

Annihilator - Denied - текст песни, таба, видео

Печатать
Просмотров: 135
Авторы музыки: Jeff Waters
Авторы текста: Joe Comeau
Annihilator - Denied

tabbed by ol753
www.annihilatormetal.com
ol753_357lo@yahoo.co.uk

Tuning - D A D G B E


Both Gtrs
play twice
       PM-|                PM-|            PM----|
|-----------------------------------------------------|
|-----------------------------------------------------|
|-----------------------------------------------------|
|-----------------------------------------------------|
|--------------------------------------4-5------------|
|-6p0--0--0-6---------6p0--0--0-6--2-3-----4-3-4-5----|


       PM-|                PM-|
|-----------------------------------------------------|
|-----------------------------------------------------|
|-----------------------------------------------------|
|-----------------------------------------------------|
|--------------------------------------8-7------------|
|-6p0--0--0-6---------6p0--0--0-6--5-6-----5-0-3h5----|


Gtr 1
play twice
       PM-|         PM-|         PM-|            PM----|
|-----------------------------------------------------------|
|-----------------------------------------------------------|
|-----------------------------------------------------------|
|-----------------------------------------------------------|
|--------------------------------------------4-5------------|
|-6p0--0--0-6--6p0--0--0-6--6p0--0--0-6--2-3-----4-3-4-5----|


       PM-|         PM-|         PM-|
|-----------------------------------------------------------|
|-----------------------------------------------------------|
|-----------------------------------------------------------|
|-----------------------------------------------------------|
|--------------------------------------------8-7------------|
|-6p0--0--0-6--6p0--0--0-6--6p0--0--0-6--5-6-----5-0-3h5----|


Gtr 2
       PM-|                PM-|            PM----|
|-----------------------------------------------------|
|-----------------------------------------------------|
|-----------------------------------------------------|
|-----------------------------------------------------|
|--------------------------------------4-5------------|
|-6p0--0--0-6---------6p0--0--0-6--2-3-----4-3-4-5----|


       PM-|                PM-|
|-----------------------------------------------------|
|-----------------------------------------------------|
|-----------------------------------------------------|
|-----------------------------------------------------|
|--------------------------------------8-7------------|
|-6p0--0--0-6---------6p0--0--0-6--5-6-----5-0-3h5----|


       PM-|                PM-|            PM----|
|-----------------------------------------------------|
|-----------------------------------------------------|
|-----------------------------------------------------|
|-----------------------------------------------------|
|--------------------------------------7-8------------|
|-6p0--0--0-6---------6p0--0--0-6--5-6-----7-6-7-8----|


       PM-|                PM-|
|-------------------------------------------------------|
|-------------------------------------------------------|
|-------------------------------------------------------|
|-------------------------------------------------------|
|--------------------------------------11-10------------|
|-6p0--0--0-6---------6p0--0--0-6--8-9-------8-0-6h8----|


Both Gtrs
play twice
  PM---------------------------------------------------|
|-----------------------------------------------------------|
|-----------------------------------------------------------|
|-----------------------------------------------------------|
|-----------------------------------------------------------|
|--------------------------------------------4-5------------|
|-0-0--0--0-0--0-0--0--0-0--0-0--0--0-0--2-3-----4-3-4-5----|


  PM----------------------------------|
|-----------------------------------------------------------|
|-----------------------------------------------------------|
|-----------------------------------------------------------|
|-----------------------------------------------------------|
|--------------------------------------------8-7------------|
|-0-0--0--0-0--0-0--0--0-0--0-0--0--0-0--5-6-----5-0-3h5----|


Gtr 3
play twice
(pick aswell as trill)
|---------------------------------------------------------------------------------|
|-10tr11-----13tr14-----16tr17-----13tr14-----10tr11-----7tr8-----4tr5----1tr2----|
|---------------------------------------------------------------------------------|
|---------------------------------------------------------------------------------|
|---------------------------------------------------------------------------------|
|---------------------------------------------------------------------------------|


|-----10-----10-----10-----8---------10-----10---10S11--10-8-----------------|
|------------------------------------------------------------11-10-8---------|
|-7-8----7-8----7-8----7-8-------7-8----7-8----7---------------------10-8-7--|
|----------------------------------------------------------------------------|
|----------------------------------------------------------------------------|
|----------------------------------------------------------------------------|


Verse
Both Gtrs
play twice
       PM-|          PM-|          PM-|             PM----|
|-------------------------------------------------------------|
|-------------------------------------------------------------|
|-------------------------------------------------------------|
|-------------------------------------------------------------|
|-----------------------------------------------4-5-----------|
|-6p0--0--0-6p0-6p0--0--0-6p0-6p0--0--0--6--2-3-----4-3-4-5---|


       PM-|          PM-|          PM-|
|-------------------------------------------------------------|
|-------------------------------------------------------------|
|-------------------------------------------------------------|
|-------------------------------------------------------------|
|----------------------------------------------8-7------------|
|-6p0--0--0-6p0-6p0--0--0-6p0-6p0--0--0-6--5-6-----6-0-3h5----|


Pre-Chorus
Both Gtrs
play 4 times
  PM----|         PM--------|     PM----|
|--------------------------------------------------------------------|
|--------------------------------------------------------------------|
|--------------------------------------------------------------------|
|-------------------------------------------------8-8-8-8-8-8-8-8----|
|---------8-8-7-7-------------4-4---------8-8-7-7-6-6-6-6-6-6-6-6----|
|-0-0-7-7---------6-6-0-0-3-3-----0-0-7-7----------------------------|


Both Gtrs
|----------------------------------------------------|
|----------------------------------------------------|
|----------------------------------------------------|
|-8-8-8-8-8-8-8-8-8-8-8-8-8-8-8-8-8-8-8-8-8-8-8-8----|
|-6-6-6-6-6-6-6-6-6-6-6-6-6-6-6-6-6-6-6-6-6-6-6-6----|
|----------------------------------------------------|


Chorus
Both Gtrs
play twice
  PM             PM             PM-----------|
|-----------------------------------------------------------------|
|----9-9-9-9-9-9--------------------------------------------------|
|----7-7-7-7-7-7--------------------------------------------------|
|-----------------------7-----------------------------------------|
|-------------------5-6---6-5-6----------------5p3p0-6p3p0-5p3----|
|-0--------------0--------------0--0-0-0-0-0-0-5p3p0-6p3p0-5p3----|


  PM             PM             PM-----------|
|-----------------------------------------------------------|
|----9-9-9-9-9-9--------------------------------------------|
|----7-7-7-7-7-7--------------------------------------------|
|-----------------------7-----------------------------------|
|-------------------5-6---6-5-6----------------6-6---3-3----|
|-0--------------0--------------0--0-0-0-0-0-0-6-6---3-3----|


Both Gtrs
       PM-|                PM-|            PM----|
|-----------------------------------------------------|
|-----------------------------------------------------|
|-----------------------------------------------------|
|-----------------------------------------------------|
|--------------------------------------4-5------------|
|-6p0--0--0-6---------6p0--0--0-6--2-3-----4-3-4-5----|


Gtr 1
       PM-|         PM-|         PM-|            PM----|
|-----------------------------------------------------------|
|-----------------------------------------------------------|
|-----------------------------------------------------------|
|-----------------------------------------------------------|
|--------------------------------------------8-7------------|
|-6p0--0--0-6--6p0--0--0-6--6p0--0--0-6--5-6-----5-0-3h5----|


Gtr 2
       PM-|                PM-|
|-----------------------------------------------------|
|-----------------------------------------------------|
|-----------------------------------------------------|
|-----------------------------------------------------|
|--------------------------------------8-7------------|
|-6p0--0--0-6---------6p0--0--0-6--5-6-----5-0-3h5----|


Both Gtrs
  PM---------------------------------------------------|
|-----------------------------------------------------------|
|-----------------------------------------------------------|
|-----------------------------------------------------------|
|-----------------------------------------------------------|
|--------------------------------------------4-5------------|
|-0-0--0--0-0--0-0--0--0-0--0-0--0--0-0--2-3-----4-3-4-5----|


  PM----------------------------------|
|-----------------------------------------------------------|
|-----------------------------------------------------------|
|-----------------------------------------------------------|
|-----------------------------------------------------------|
|--------------------------------------------8-7------------|
|-0-0--0--0-0--0-0--0--0-0--0-0--0--0-0--5-6-----5-0-3h5----|


Gtr 3
(pick aswell as trill)
|---------------------------------------------------------------------------------|
|-10tr11-----13tr14-----16tr17-----13tr14-----10tr11-----7tr8-----4tr5----1tr2----|
|---------------------------------------------------------------------------------|
|---------------------------------------------------------------------------------|
|---------------------------------------------------------------------------------|
|---------------------------------------------------------------------------------|


|-----10-----10-----10-----8---------10-----10---10S11--10-8-----------------|
|------------------------------------------------------------11-10-8---------|
|-7-8----7-8----7-8----7-8-------7-8----7-8----7---------------------10-8-7--|
|----------------------------------------------------------------------------|
|----------------------------------------------------------------------------|
|----------------------------------------------------------------------------|


Repeat Verse
Repeat Pre-Chorus
Repeat Chorus


Gtr 1
play 4 times
  PM--------------|
|----------------------|
|----------------------|
|----------------------|
|----------------------|
|----------------------|
|-0-1-3-4-0-1-3-4-0----|


Gtr 2
play 4 times
  PM----------------------------|
|------------------------------------|
|------------------------------------|
|------------------------------------|
|------------------------------------|
|------------------------------------|
|-0-1-3-4-0-1-3-4-0-1-3-4-3-1-0-1----|


Both Gtrs
play 4 times
  PM----------------------------|
|------------------------------------|
|------------------------------------|
|------------------------------------|
|------------------------------------|
|------------------------------------|
|-0-1-3-4-0-1-3-4-0-1-3-4-3-1-0-1----|


Gtr 1
play twice
  PM----------------------------|
|------------------------------------------------------------------|
|------------------------------------------------------------------|
|------------------------------------------------------------------|
|------------------------------------------------------------------|
|---------------------------------------2-4-5-------4-6-7-5-7-8----|
|-0-1-3-4-0-1-3-4-0-1-3-4-3-1-0-1-1-3-4-------3-5-6----------------|


Gtr 2
play twice
  PM----------------------------|
|---------------------------------------------------------------------|
|---------------------------------------------------------------------|
|---------------------------------------------------------------------|
|---------------------------------------------------------------------|
|---------------------------------------5-7-8-------7-9-10-8-10-11----|
|-0-1-3-4-0-1-3-4-0-1-3-4-3-1-0-1-4-6-7-------6-8-9-------------------|


Gtr 1
play twice
|-------------------------------------------------------------------|
|-------------------------------------------------------------------|
|-------------------------------------------------------------------|
|-------------------------------------------------------------------|
|---------------------------------------4-6-7-------6-8-9-7-9-10----|
|-0-3-5-6-0-5-6-8-0-6-8-9-0-5-6-8-3-5-6-------5-7-8-----------------|


Gtr 2
play twice
|--------------------------------------------------------------------------|
|--------------------------------------------------------------------------|
|--------------------------------------------------------------------------|
|--------------------------------------------------------------------------|
|---------------------------------------7-9-10---------9-11-12-10-12-13----|
|-0-3-5-6-0-5-6-8-0-6-8-9-0-5-6-8-6-8-9--------8-10-11---------------------|


Both Gtrs
play twice, Gtr 3 Lead (to be added)
|-----------------------------------------|
|-----------------------------------------|
|-----------------------------------------|
|-11--10--8--8--8--8--6--4--4--4--4--4----|
|--8---8--8--8--8--8--4--4--4--4--4--4----|
|--8---8--8--8--8--8--4--4--4--4--4--4----|


|-----------------------------------|
|-----------------------------------|
|-----------------------------------|
|-11--10--8--8--8--8--6--4--4--4----|
|--8---8--8--8--8--8--4--4--4--4----|
|--8---8--8--8--8--8--4--4--4--4----|


|-----------------------------------------|
|-----------------------------------------|
|-----------------------------------------|
|-11--10--8--8--8--8--6--4--4--4--4--4----|
|--8---8--8--8--8--8--4--4--4--4--4--4----|
|--8---8--8--8--8--8--4--4--4--4--4--4----|


  PM------------------------------------------------------------|
|--------------------------------------------------------------------|
|--------------------------------------------------------------------|
|--------------------------------------------------------------------|
|--------------------------------------------------------------------|
|--------------------------------------------------------------------|
|-3-3-3-3-3-3-3-3-3-3-3-3-3-3-3-3-3-3-3-3-3-3-3-3-3-3-3-3-3-3-3-3----|


Both Gtrs
play 4 times
  PM-------------------------------------|
|-------------------------------------------------------|
|-------------------------------------------------------|
|-------------------------------------------------------|
|------------------------------------------5-5---2-2----|
|------------------------------------------3-3---0-0----|
|-2--0-2--0-2-0-2--0-2--0-2-0-2--0-2-0-2-0--------------|


Both Gtrs
play twice
|-------------------------------------------------------|
|-------------------------------------------------------|
|-------0---0--0-0-0-0---0--0-0-0-0---0--0-0-0-0---0----|
|-2-2-2-2---2--0-0-0-0---0--5-5-5-5---5--7-7-7-7---7----|
|-0-0-0-0---0--2-2-2-2---2--3-3-3-3---3--5-5-5-5---5----|
|-------------------------------------------------------|


Both Gtrs
|-----------------------------------------|
|-----------------------------------------|
|-------0---0--0-0-0-0---0--0-0-0-0---0---|
|-2-2-2-2---2--0-0-0-0---0--5-5-5-5---5---|
|-0-0-0-0---0--2-2-2-2---2--3-3-3-3---3---|
|-----------------------------------------|


|------------------|
|------------------|
|------------------|
|-5-5-5-5-5p4------|
|-------------7----|
|------------------|


Both Gtrs
play twice
  PM-------------------------------------|
|-------------------------------------------------------|
|-------------------------------------------------------|
|-------------------------------------------------------|
|------------------------------------------5-5---2-2----|
|------------------------------------------3-3---0-0----|
|-2--0-2--0-2-0-2--0-2--0-2-0-2--0-2-0-2-0--------------|


Gtr 1
|-----------------------------------------------------------------------------------|
|-----------------------------------------------------------------------------------|
|---------11-10-9------[9]b9.5r9----9---------------9-8-7------7b7.5r7----7---------|
|-9-11-12----------12------------12---9-12---7-9-10--------10----------10---7-10----|
|-----------------------------------------------------------------------------------|
|-----------------------------------------------------------------------------------|


Gtr 2
|----------------------------------------------------------------------------------------------------|
|----------------------------------------------------------------------------------------------------|
|----------14-13-12------[12]b12.5r12----12------------------12-11-10------10b10.5r10----10----------|
|-12-14-15-----------15---------------15----12-15---10-12-13-----------13-------------13----10-13----|
|----------------------------------------------------------------------------------------------------|
|----------------------------------------------------------------------------------------------------|


Both Gtrs
       PM-|                PM-|            PM----|
|-----------------------------------------------------|
|-----------------------------------------------------|
|-----------------------------------------------------|
|-----------------------------------------------------|
|--------------------------------------4-5------------|
|-6p0--0--0-6---------6p0--0--0-6--2-3-----4-3-4-5----|


Gtr 1
       PM-|         PM-|         PM-|            PM----|
|-----------------------------------------------------------|
|-----------------------------------------------------------|
|-----------------------------------------------------------|
|-----------------------------------------------------------|
|--------------------------------------------4-5------------|
|-6p0--0--0-6--6p0--0--0-6--6p0--0--0-6--2-3-----4-3-4-5----|


Gtr 2
       PM-|                PM-|
|-----------------------------------------------------|
|-----------------------------------------------------|
|-----------------------------------------------------|
|-----------------------------------------------------|
|--------------------------------------8-7------------|
|-6p0--0--0-6---------6p0--0--0-6--5-6-----5-0-3h5----|


Repeat Verse
Repeat Pre-Chorus


Both Gtrs
play 4 times
  PM----|         PM--------|     PM----|
|--------------------------------------------------------------------|
|--------------------------------------------------------------------|
|--------------------------------------------------------------------|
|-------------------------------------------------8-8-8-8-8-8-8-8----|
|---------8-8-7-7-------------4-4---------8-8-7-7-6-6-6-6-6-6-6-6----|
|-0-0-7-7---------6-6-0-0-3-3-----0-0-7-7----------------------------|


Both Gtrs
|----------------------------------------------------|
|----------------------------------------------------|
|----------------------------------------------------|
|-8-8-8-8-8-8-8-8-8-8-8-8-8-8-8-8-8-8-8-8-8-8-8-8----|
|-6-6-6-6-6-6-6-6-6-6-6-6-6-6-6-6-6-6-6-6-6-6-6-6----|
|----------------------------------------------------|


Gtr 3
play 4 times
with whammy bar
|------------|
|-<7>--------|
|-----<5>----|
|------------|
|------------|
|------------|


Both Gtrs
  PM----------------------|
|------------------------------|
|------------------------------|
|------------------------------|
|------------------------------|
|------------------------------| Listen to track for rhythms etc.
|-0-0-0-0-0-0-0-0-0-0-0-0-0----|


Tablature Legend
----------------
 h   - hammer-on
 p   - pull-off
 b   - bend
 pb  - pre-bend
 r   - bend release (if no number after the r, then release immediately)
 /\  - slide into or out of (from/to "nowhere")
 s   - legato slide
 S   - shift slide
  - natural harmonic
[n]  - artificial harmonic
n(n) - tapped harmonic
 ~   - vibrato
 tr  - trill
 T   - tap
 TP  - trem. picking
 PM  - palm muting
\n/  - tremolo bar dip; n = amount to dip
 \n  - tremolo bar down
 n/  - tremolo bar up
/n\  - tremolo bar inverted dip
 =   - hold bend; also acts as connecting device for hammers/pulls
 <>  - volume swell (louder/softer)
 x   - on rhythm slash represents muted slash
 o   - on rhythm slash represents single note slash

Misc Legend
-----------
 |  - bar
||  - double bar
||o - repeat start
o|| - repeat end
*|  - double bar (ending)
 :  - bar (freetime)
 $  - Segno
 &  - Coda
Tempo markers -  = BPM(8/16=s8/s16), where s8 = swing 8ths, s16 = swing 16ths

Добавлено: 25.09.2013
Другие материалы по этой песне:

Страница создана 23.02.2012
http://primanota.ru/annihilator/denied-chords.htm
Привет, Гость.
Предлагаем пройти революционный курс по гитаре.
Подарок от PrimaNota.Ru, забирай!