PrimaNota.ru - самый крупный в мире бесплатный архив песенных текстов, аккордов, табулатур и нот


All That Remains - Two Weeks - текст песни, таба, бас-таба, видео

Регистрация Запомнить меня
Войти через:  Facebook Google Twitter Vk Yandex Mail.ru

All That Remains - Two Weeks - текст песни, таба, бас-таба, видео

Печатать
Просмотров: 478
Авторы музыки: Mike Martin, Jason Costa, Oli Herbert, Philip LaBonte
Авторы текста: Philip LaBonte
artist: all that remains
song: two weeks
tuning: DADGBe


sorry i havn't figured out the whole song but when i do you'll know.
jeremiah smith

e -----------------------------------------------------------------------|
B -----------------------------------------------------------------------|
G -----------------------------------------------------------------------|
D --------------------------------------------7--------7-8-7----7--------|
A -5-------8-7-5-7--0-------10-8-7-8--8--------10-8-10-------10---10-8-7-|
D -5-5-5-5----------0-0-0-0-----------8-8-8-8----------------------------|
riff 1

e -----------------------------------------------------------------------|
B -----------------------------------------------------------------------|
G -----------------------------------------------------------------------|
D -----------------------------------------------------------------------|
A -3/5--5--5--5-------5-5/7--7--7--7-------7-7/8--8--8--8-------8-8/5----|
D -----0-00-00-0-0-000-0----0-00-00-0-0-000-0----0-00-00-0-0-000-0-------|

e ------------------------------------------------------|
B ------------------------------------------------------|
G ------------------------------------------------------| repeat riff 2 (6x)
D ------------7-----------------------------------------|
A --5--5--5----10-8-7-----------------------------------|
D -0-00-00-00-------------------------------------------|
riff 2
Добавлено: 30.04.2012
Другие материалы по этой песне:

Страница создана 22.02.2012
http://primanota.ru/all-that-remains/two-weeks-chords.htm
Привет, Гость.
Предлагаем пройти революционный курс по гитаре.
Подарок от PrimaNota.Ru, забирай!