PrimaNota.ru - самый крупный в мире бесплатный архив песенных текстов, аккордов, табулатур и нот


All That Remains - This Calling - аккорды и текст, таба, бас-таба, видео

Регистрация Запомнить меня
Войти через:  Facebook Google Twitter Vk Yandex Mail.ru

All That Remains - This Calling - аккорды и текст, таба, бас-таба, видео

Печатать
Просмотров: 513
This Calling
All That Remains
Intro:    D                     DC D             BbC CD
       e|----------------------------------------------|
       B|----------------------------------------------|
       G|-7-777-777-777-777-777-75-7-777-777-777-35-57-| X2
       D|-7-777-777-777-777-777-75-7-777-777-777-35-57-|
       A|-5-555-555-555-555-555-53-5-555-555-555-13-35-|
       E|----------------------------------------------|

Verse:    D                     DC D             BbC CD
       e|----------------------------------------------|
       B|----------------------------------------------|
       G|-7-777-777-777-777-777-75-7-777-777-777-35-57-| X3
       D|-7-777-777-777-777-777-75-7-777-777-777-35-57-|
       A|-5-555-555-555-555-555-53-5-555-555-555-13-35-|
       E|----------------------------------------------|

          I secretly crave, crave that scent again. Still feel it pressing on me now.

          Now with the onset, my flesh is weakening.

       e|------------------------------------------------------|
       B|------------------------------------------------------|
       G|-7-777-777-777-777-777-75-7-777-777-777-3-5-5-7-75-53-|
       D|-7-777-777-777-777-777-75-7-777-777-777-3-5-5-7-75-53-|
       A|-5-555-555-555-555-555-53-5-555-555-555-1-3-3-5-53-31-|
       E|------------------------------------------------------|

          I steel my nerves for temptations at hand again

Chorus:    C             D             E                            D
        e|---------------------------------------------------------------|
        B|---------------------------------------------------------------|
        G|-3~---3~-------5~---5~-------7777777777777777777777777777-5555-|
        D|-3~-3----3---3-5~-5----5---5-7777777777777777777777777777-5555-|
        A|-1~--------1---3~--------3---5555555555555555555555555555-3333-|
        E|---------------------------------------------------------------|

           And I hear, this calling.  Still you don't seem so far at all
  
           C             D             
        e|-----------------------------|
        B|-----------------------------|
        G|-3~---3~-------5~---5~-------|
        D|-3~-3----3---3-5~-5----5---5-|
        A|-1~--------1---3~--------3---|
        E|-----------------------------|

           And I hear, this calling

           D                     DC D             BbC CD
        e|----------------------------------------------|
        B|----------------------------------------------|
        G|-7-777-777-777-777-777-75-7-777-777-777-35-57-| X2
        D|-7-777-777-777-777-777-75-7-777-777-777-35-57-|
        A|-5-555-555-555-555-555-53-5-555-555-555-13-35-|
        E|----------------------------------------------|

           oooooooooooooooooooout.


Verse:     D                     DC D             BbC CD
        e|----------------------------------------------|
        B|----------------------------------------------|
        G|-7-777-777-777-777-777-75-7-777-777-777-35-57-| X3
        D|-7-777-777-777-777-777-75-7-777-777-777-35-57-|
        A|-5-555-555-555-555-555-53-5-555-555-555-13-35-|
        E|----------------------------------------------|

           No secret deception, for these would tear this down

           I'll note the past, spare the pain (spare the pain!)

           Words match my deeds with brutal honesty

           D                     DC D             BbC 
        e|--------------------------------------------|
        B|--------------------------------------------|
        G|-7-777-777-777-777-777-75-7-777-777-777-3-5-| 
        D|-7-777-777-777-777-777-75-7-777-777-777-3-5-|
        A|-5-555-555-555-555-555-53-5-555-555-555-1-3-|
        E|--------------------------------------------|

           Never forget: these choices were made by me


Chorus:    C             D             E                            D
        e|---------------------------------------------------------------|
        B|---------------------------------------------------------------|
        G|-3~---3~-------5~---5~-------7777777777777777777777777777-5555-| X2
        D|-3~-3----3---3-5~-5----5---5-7777777777777777777777777777-5555-|
        A|-1~--------1---3~--------3---5555555555555555555555555555-3333-|
        E|---------------------------------------------------------------|

           And I hear, this calling.  Still you don't seem so far at all

           And I hear, this calling.  Still you don't seem so far at all

           C             D             
        e|-----------------------------|
        B|-----------------------------|
        G|-3~---3~-------5~---5~-------|
        D|-3~-3----3---3-5~-5----5---5-|
        A|-1~--------1---3~--------3---|
        E|-----------------------------|

           And I hear (and I hear) this calling

           D                          Bb         E  D      
        e|----------------------------------------------|
        B|----------------------------------------------|
        G|-7-x-777-x-77---------------3~---3-----2-25-5-| X4
        D|-7-x-777-x-77---------------3~-3---3---2-25-5-|
        A|-5-x-555-x-55-8-777-5-7-5-3-1~-------1-0-03-3-|
        E|----------------------------------------------|

           oooooooooooooout

Bridge:    D                   Bb C
        e|---------------------------|
        B|---------------------------|
        G|-7-7-7-7-7-x-x-7-7-7-3~-5~-|
        D|-7-7-7-7-7-x-x-7-7-7-3~-5~-|
        A|-5-5-5-5-5-x-x-5-5-5-1~-3~-|
        E|---------------------------|

           Not falling victim to the fire that burns inside of me

           Though I am fearful, I will not prevent this tragedy

           My strength's been tested,     I wear the scars that prove

           Still I believe that this calling will see me through


Solo:    Bb       C        D                            C
      e|-----------------------------------------------------|
      B|-----------------------------------------------------|
      G|-3-x-3~-x-5-x-5~-x-7777777777777777777777777777-5555-| X2
      D|-3-x-3~-x-5-x-5~-x-7777777777777777777777777777-5555-|
      A|-1-x-1~-x-3-x-3~-x-5555555555555555555555555555-3333-|
      E|-----------------------------------------------------|

Chorus:    Bb            C             D                            C
        e|---------------------------------------------------------------|
        B|---------------------------------------------------------------|
        G|-3~---3~-------5~---5~-------7777777777777777777777777777-5555-| X2
        D|-3~-3----3---3-5~-5----5---5-7777777777777777777777777777-5555-|
        A|-1~--------1---3~--------3---5555555555555555555555555555-3333-|
        E|---------------------------------------------------------------|

           And I hear, this calling.  Still you don't seem so far at all

           And I hear, this calling.  Still you don't seem so far at all

           C             D             
        e|-----------------------------|
        B|-----------------------------|
        G|-3~---3~-------5~---5~-------|
        D|-3~-3----3---3-5~-5----5---5-|
        A|-1~--------1---3~--------3---|
        E|-----------------------------|

           And I hear (and I hear) this calling

           D                                       BbC 
        e|---------------------------------------------|
        B|---------------------------------------------|
        G|-7-777-777-777-777-777-xxx-7-777-777-777-3-5-| X2
        D|-7-777-777-777-777-777-xxx-7-777-777-777-3-5-|
        A|-5-555-555-555-555-555-xxx-5-555-555-555-1-3-|
        E|---------------------------------------------|

           oooooooooooooooooooout.

Outro:     D                                       BbC 
        e|---------------------------------------------|
        B|---------------------------------------------|
        G|-7-777-777-777-777-777-xxx-7-777-777-777-3-5-| X2
        D|-7-777-777-777-777-777-xxx-7-777-777-777-3-5-|
        A|-5-555-555-555-555-555-xxx-5-555-555-555-1-3-|
        E|---------------------------------------------|

           My strength's been tested. I wear the scars that prove.

           Still I believe that this calling will see me throoooooooooouugh

       e|-----------------------------------------------------|
       B|-----------------------------------------------------|
       G|-7-777-777-777-777-777-75-7-777-777-777-35-57-5-7~-7-| 
       D|-7-777-777-777-777-777-75-7-777-777-777-35-57-5-7~-7-|
       A|-5-555-555-555-555-555-53-5-555-555-555-13-35-3-5~-5-|
       E|-----------------------------------------------------| 

          Still I believe that this calling will see me throooooooough, oooooh.


Tempo is set at around 216 BPM, which is averaging 3.5 notes per second on average.
Quite a fast song on the galloping triplets for bass string. Hope your strumming arm is very fast.
Добавлено: 16.05.2016
Другие материалы по этой песне:

Страница создана 30.03.2012
http://primanota.ru/all-that-remains/this-calling-chords.htm
Привет, Гость.
Предлагаем пройти революционный курс по гитаре.
Подарок от PrimaNota.Ru, забирай!