PrimaNota.ru - самый крупный в мире бесплатный архив песенных текстов, аккордов, табулатур и нот


All That Remains - We Stand - текст песни, таба, бас-таба, видео

Регистрация Запомнить меня
Войти через:  Facebook Google Twitter Vk Yandex Mail.ru

All That Remains - We Stand - текст песни, таба, бас-таба, видео

Печатать
Просмотров: 232
Уроки эстрадного вокала в Санкт-Петербурге
Авторы: Jeanne Sagan, Michael Martin, Oli Herbert, Philip LaBonte

Ok so this is my first tab and this band is amazing!

KEY

... = palm mute
/ = slide
~ = let note ring slightly

I only know the intro and that little interlude part before the solo but i am working on the rest.

TUNNING (D C G F A D) Standard D

Intro
|-----------------------------------------------------------------|
|-----------------------------------------------------------------|
|-------------------------------9------------------9-7------------|
|------10~-9----10~-9------10-9------10~-9--7-9-10-----10-9-7-----|
|-------------------------------------------------------------10--|
|--000-------000------000-0-------000-----------------------------|
   ...       ...      ... .       ...       . .  .

Repeat that so many times.

Verse (my attempt but im not sure how good it is)
|-----------------------------------------------------------------------|
|-----------------------------------------------------------------------|
|-----------------------------------------------------------------------|
|----------/7~-5-9-------7---9---10---------/7~-5-10-------9---10---12--|
|-----------------------------------------------------------------------|
|--000-0-0---------0-0-0---0---0----000-0-0----------0-0-0---0----0-----|
   ... . .         . . .   .   .    ... . .          . . .   .    .

Interlude
|-------------------------------------------|
|-------------------------------------------|
|-------------------------------------------|
|-------------------------------------------|
|------10-9-10-7-----10-9-10-7--12-10-12-9--|
|--000-----------000------------------------|
   ...           ...

Well thats all i have but i am working on the rest and hope to have it posted soon...ENJOY!!
Добавлено: 03.06.2012
Другие материалы по этой песне:

Страница создана 10.03.2012
http://primanota.ru/all-that-remains/we-stand-chords.htm
Привет, Гость.
Предлагаем пройти революционный курс по гитаре.
Подарок от PrimaNota.Ru, забирай!