PrimaNota.ru - самый крупный в мире бесплатный архив песенных текстов, аккордов, табулатур и нот


All That Remains - Whispers I Hear You - текст песни, таба, бас-таба, видео

Регистрация Запомнить меня
Войти через:  Facebook Google Twitter Vk Yandex Mail.ru

All That Remains - Whispers I Hear You - текст песни, таба, бас-таба, видео

Печатать
Просмотров: 407
-Tabbed by: Rob-

                    All That Remains
                Track 5-Whispers(I Hear Your)
                     Fall Of Ideals

-I hope a lot of people find
this solo tab useful, this is          Guitar 1(DADGBE)
such an awesome song and solo-         Guitar 2(DADGBE)

P=Pickoff
T=Tap
PM=Palm-Mute
              [Solo]
E --------------------------------------|
B --------------------------------------|
G -------975---1097-12109-----1097------|
D ----578---875----------12108----1087--|
A -578----------------------------------|
D --------------------------------------|

E --------------------------------------|
B --------------------------------------|
G -------975---1097-12109-----1097------|
D ----578---875----------12108----1087--|
A -578----------------------------------|
D --------------------------------------|


        T  T  T  T  T  T  T  T  T  T  T
E -8p5--13-12-13-12-13-10-13-12-13-15-13--|
B ----------------------------------------|
G ----------------------------------------|
D ----------------------------------------|
A ----------------------------------------|
D ----------------------------------------| 
G -----------------------------------------|
D -----------------------------------------|
A -----------------------------------------|
D -----------------------------------------|

        [Bridge And Rhythm For Solo]
E --------------------------------------|
B --------------------------------------|
G --------7-7-7/999--10-9-7-10-9-12-10--|
D -0-000--x-x-x-xxx---x-x-x--x-x--x--x--|
A -0-000--5-5-5/777---8-7-5--8-7-10--8--|
D -0-000---0-0---------0-0-0--0-0--0----|
PM   ...   . .         . . .  . .  .
Добавлено: 14.03.2012
Другие материалы по этой песне:

Страница создана 26.02.2012
http://primanota.ru/all-that-remains/whispers-i-hear-you-chords.htm
Привет, Гость.
Предлагаем пройти революционный курс по гитаре.
Подарок от PrimaNota.Ru, забирай!