PrimaNota.ru - самый крупный в мире бесплатный архив песенных текстов, аккордов, табулатур и нот


All That Remains - Chiron - аккорды и текст, таба, видео

Регистрация Запомнить меня
Войти через:  Facebook Google Twitter Vk Yandex Mail.ru

All That Remains - Chiron - аккорды и текст, таба, видео

Печатать
Просмотров: 185
Chiron
All That Remains
All That Remains
Chiron
Submitted by: paramore_fans@yahoo.com

Key: E

Tuning: Standard EADGBe

Chords used:
C#m -  x46654
Abm -  466444
F#m -  244222
Ab -   466544
D -    xx0232
Ab/C - x365xx


Intro: C#m--Abm--F#m--Ab x2


Verse 1:
C#m
  Have not the strongest
Abm
  And closest ties
              F#m
been bound so long
I've called upon them
D
They remind me
Ab
where I'm from
C#m
  With deep conviction
Abm
  I am connected
          F#m
cross the miles
              D
With out them nothing
        Ab
worth relying on


Chorus:
C#m
  It's been so long
              D
since I could say
I've needed
          F#m
anything stronger
            Ab
We can't be wrong when we
have ties that bind us
C#m      D
  If I rely and I
          F#m
know the strength
In those who
taught me of the
Ab
Power in the
ties that bind


Interlude: C#m--D--G#m--G#--


Verse 2:
C#m
  When I turn inward
Ab
  And look for
                  F#m
strength within myself
And demonstrations
D
  of courage
Ab
Are the result
C#m
  If inspiration
Ab
  is wholly shared
                 F#m
Then more is the gain
Then I will follow
D
  The selfless
Ab
actions displayed


(Repeat Chorus)


Bridge:

Growl:
C#m         D
We are made powerful

Screamo:
F#m         Ab
We are made powerful


Acoustic Riff:

Guitar 1: x3
       C#m                  Ab/C                 A
e|--------------|------|-----------|------|--------------|------|
B|--------------|------|-----------|------|-------0----2-|------|
G|------------6-|------|---------6-|------|----------1---|------|
D|------6-----6-|-idle-|----6----6-|-idle-|----2---------|-idle-|
A|-4--4-----7---|------|-3-----7---|------|-0------------|------|
E|--------------|------|-----------|------|--------------|------|

   F#m     Ab
e|------|------|
B|------|------|
G|----6-|----6-|
D|----6-|----3-|
A|----4-|----4-|
E|-2----|-4----|


Guitar 2: x2
e|------|----0--2---|------|----0--2---|------|-5--4--0--2-|-4-|-4-|
B|------|-4-------4-|------|-4-------2-|------|-2----------|-2-|-1-|
G|------|---------1-|------|---------1-|------|------------|---|---|
D|-idle-|-----------|-idle-|-----------|-idle-|------------|---|---|
A|------|-----------|------|-----------|------|------------|---|---|
E|------|-----------|------|-----------|------|------------|---|---|


Distortion: C#m--G#/C--A--F#m-G# x2, C#m--x4

Guitar Solo: C#m----

C#m--G#--A--F#m-G#-C#m--G#m--F#m--G#--C#m(hold)


(Repeat Chorus and Interlude)
(Repeat Bridge twice)

Outro: C#m(hold)
Добавлено: 27.11.2013
Другие материалы по этой песне:
  • Аккорды и текст

Страница создана 04.07.2013
http://primanota.ru/all-that-remains/chiron-chords.htm
Привет, Гость.
Предлагаем пройти революционный курс по гитаре.
Подарок от PrimaNota.Ru, забирай!