PrimaNota.ru - самый крупный в мире бесплатный архив песенных текстов, аккордов, табулатур и нот


All That Remains - Overcome - текст песни, таба, видео

Регистрация Запомнить меня
Войти через:  Facebook Google Twitter Vk Yandex Mail.ru

All That Remains - Overcome - текст песни, таба, видео

Печатать
Просмотров: 203
-------------------------------------------------------------------------------
                             Overcome - All that remains
-------------------------------------------------------------------------------
Tabbed by:Lordofwar147
Email:jefry147@yahoo.com

Tuning: D Flat

e|--------------------------------------------------------------------------|
B|--------------------------------------------------------------------------|
G|--------------------------------------------------------------------------|
D|--------------------------------------------------------------------------|
A|-8-10----13p10-12-------------12---10---------10p7h8-----------10p7h8-----|
D|-8-10--0----------000-000-0-0----0----0-0-0-0--------000-000-0------------|
         .          ... ... . .    .    . . . .        ... ...

e|--------------------------------------------------------------------------|
B|--------------------------------------------------------------------------|
G|--------------------------------------------------------------------------|
D|----------------------------------------------------------------10-10-----|
A|---8p5h7---13p10-12-------------12---10-------8-8-----10-10-----8--8------|
D|-0-------0----------000-000-0-0----0----0-0-0-8-8-0-0-10-10-0-0-------0-0-|
   .       .          ... ... . .    .    . . .     . .       . .       . .

e|--------------------------------------------------------------------------|
B|--------------------------------------------------------------------------|
G|--------------------------------------------------------------------------|
D|-10-10--------------------------------------------------------------------|
A|-7--7---------------------------------------------------------------------|
D|--------------------------------------------------------------------------|

| /  slide up
| \  slide down
| h  hammer-on
| p  pull-off
| ~  vibrato
| +  harmonic
| .  Mute note
===============================================================================
Добавлено: 11.07.2012
Другие материалы по этой песне:

Страница создана 11.07.2012
http://primanota.ru/all-that-remains/overcome-chords.htm
Привет, Гость.
Предлагаем пройти революционный курс по гитаре.
Подарок от PrimaNota.Ru, забирай!