PrimaNota.ru - самый крупный в мире бесплатный архив песенных текстов, аккордов, табулатур и нот


All That Remains - Air That I Breath - таба, бас-таба, видео

Регистрация Запомнить меня
Войти через:  Facebook Google Twitter Vk Yandex Mail.ru

All That Remains - Air That I Breath - таба, бас-таба, видео

Печатать
Просмотров: 147
READ ALL PARTS OF THE TAB OR IT WON'T MAKE SENSE!  LISTEN TO THE SONG!  SOME PARTS ARE 
TO HEAR.  READ ALL DIRECTIONS!

-ALSO, Realize that there is more than one way to play just about ANYTHING on guitar!  
you'd want play this song in Drop D rather D Standard I'm sorry, this is how I tabbed it. 
Otherwise, ENJOY!


Order of Song Parts:
Intro/Pre-chorus    0:00 - 0:12     Chorus                  1:36 - 1:59
Riff 1              0:12 - 0:36     Pre-Solo Interlude
 -Intro Solo        0:24 - 0:36          -Part A            1:59 - 2:13..
Verse Riff          0:36 - 0:48          -Part B            2:13 - 2:27..
Intro/Pre-Chorus    0:48 - 0:54     Solo                    2:27 - 2:53..
Chorus              0:54 - 1:06     Riff 1                  2:53 - 3:05
Verse Riff          1:06 - 1:30     End Riff                3:05 - 3:35
Intro Pre-Chorus    1:30 - 1:36
 - With Guitar 2 Harmony

                       -Intro/Pre-Chorus-
0:00 - 0:12     0:48 - 0:54     1:30 - 1:36
Intro           Pre-Chorus      Pre-Chorus-/W Guitar 2 Pre-Chorus Harmony

 -Order of Intro:  A (twice), B, C, A (twice), B, D
 -Order of Pre-Chorus:  A (twice), B, D

Guitar 1                                                   Guitar 2
A   d|-------------------------------------------------|  |------------|
x 2 A|-------------------------------------------------|  |------------|
    F|-------------------------------------------------|  |------------|
    C|-14-11-11-11-11-11-14-11-11-11-11-11-14-11-11-11-|  |-11--or--13-|
    G|-------------------------------------------------|  |-11------11-|
    D|-------------------------------------------------|  |-9-------9--|
        .  .  .  .  .  .  .  .  .  .  .  .  .  .  .  .
B   d|-------------------------------------------------|  |----------|
    A|-------------------------------------------------|  |----------|
    F|-------------------------------------------------|  |----------|
    C|-------------------------------------------------|  |-7--or--9-|
    G|-14-11-11-11-11-11-14-11-11-11-11-11-14-11-11-11-|  |-7------7-|
    D|-------------------------------------------------|  |-5------5-|
        .  .  .  .  .  .  .  .  .  .  .  .  .  .  .  .
C   d|-------------------------------------------------|  |----------|
    A|-------------------------------------------------|  |----------|
    F|-------------------------------------------------|  |----------|
    C|-------------------------------------------------|  |-4--or--6-|
    G|-16-12-12-12-12-12-16-12-12-12-12-12-16-12-12-12-|  |-4------4-|
    D|-------------------------------------------------|  |-2------2-|
        .  .  .  .  .  .  .  .  .  .  .  .  .  .  .  .
D   d|----------------------------------------|           |-----------|
    A|----------------------------------------|           |-----------|
    F|----------------------------------------|           |-----------|
    C|----------------------------------------|           |-9--or--11-|
    G|-16-14-14-14-14-14-16-14-14-14-14-14-16-|           |-9------9--|
    D|----------------------------------------|           |-7------7--|
        .  .  .  .  .  .  .  .  .  .  .  .


                      -Pre-Chorus Harmony-
1:30 - 1:36
Guitar 2
A   d|------------------------------------|
    A|------------------------------------|
    F|-13-9-9-9-9-9-13-9-9-9-9-9-13-9-9-9-|
    C|------------------------------------|
    G|------------------------------------|
    D|------------------------------------|
        . . . . . .  . . . . . .  . . . .
B   d|------------------------------------|
    A|------------------------------------|
    F|------------------------------------|
    C|-13-9-9-9-9-9-13-9-9-9-9-9-13-9-9-9-|
    G|------------------------------------|
    D|------------------------------------|
        . . . . . .  . . . . . .  . . . .
D   d|----------------------------------------|
    A|----------------------------------------|
    F|----------------------------------------|
    C|-16-13-13-13-13-13-16-13-13-13-13-13-16-|
    G|----------------------------------------|
    D|----------------------------------------|
        .  .  .  .  .  .  .  .  .  .  .  .


                         -Riff 1-
0:12 - 0:36     2:53 - 3:05
2 Times         Once
  -Order:  A, B, A, C, A, D
Guitar 1
          A                  B              C
d|-------------------|-------------|---------------|
A|-------------------|-------------|---------------|
F|-------------------|-------------|---------------|
C|------11----11-9-9-|-------------|---------------|
G|------11----11-9-7-|-------------|-----6-7-9-6-7-|
D|-9999-9--99-9--7-5-|-00000-00000-|-5-7-----------|
   ....    ..          ..... .....   . . . . . . .
             D
d|-------------------------------------| 
A|-------------------------------------| Little lick at the end 
F|-------------------------------66-44-| of Part D is hard to hear.
C|-----6p4--6p4--6p4-------66-77-------| Not 100% sure on it.  Sounds
G|-------------------77-99-------------| Close.  Let me know.
D|-4444---44---44----------------------| 
   ....   ..   ..    .. .. .. .. .. ..


                            -Intro Solo-
0:24 - 0:36
Guitar 2
d|------------------------------19-21-16h19p16-14h16p14-12h14-14/16-|
A|-14~---14/16-17~-19-16~-16p17-------------------------------------|
F|----/13-----------------------------------------------------------|
C|------------------------------------------------------------------|
G|------------------------------------------------------------------|
D|------------------------------------------------------------------|

d|-/19-17-16-22b(24)--|(Guitar 1)  or visa versa
A|-/21-19-17-19~------|(Guitar 2)
F|--------------------|
C|--------------------|
G|--------------------|
D|--------------------|


                             -Verse Riff-
0:36 - 0:48    1:06 - 1:30
2 Times        4 times- 3rd & 4th Time
                        Guitars Harmonize
  -Guitar 2 plays Guitar 1 Part at 0:36 - 0:48.  Harmony only comes in at 1:17 - 1:30.
Guitar 1
d|-------------------------------------------------------|
A|-------------------------------------------------------|
F|-------------------------------------------------------|
C|-6---6---4/6---4/6-----2-1-----4-----------------------|
G|-4---4---2/4---2/4---------4-2-2---4---7---6-------2-4-|
D|---0---0-----0-----000-----------0-2-0-5-0-4-0-2-4-----|
     .   .     .     ...           .   .   .   . . . . .
Guitar 2 - Harmony
1:17 - 1:30
d|-------------------------------------------------------|
A|-------------------------------------------------------|
F|-------------------------------------------------------|
C|-6---6---4/6---4/6-----6-4-----4-----------------------|
G|-4---4---2/4---2/4---------7-6-----4---7---6-------2-4-|
D|---0---0-----0-----000-----------0-2-0-5-0-4-0-2-4-----|
     .   .     .     ...           .   .   .   . . . . .


                            -Chorus-
0:54 - 1:06     1:36 - 1:59
2 times

Guitars 1 & 2
d|-------------------------------------|
A|-------------------------------------|
F|-------------------------------------|
C|-13--9-11---6---4---6--4---6---4---6-|
G|-11--9-9----7---6---4--6---4---6---7-|
D|-9---7-7--0---0---0------0---0---0---|
            .   .   .      .   .   .


                       -Pre-Solo Interlude-
1:59 - 2:27
Guitar 1    (Chords for Guitar 2 Pre-Solo and Solo Below Parts A and B)
  A 1:59 - 2:13
d|-----------------------------------------------------|
A|-------------------------------------7-5---------5-4-|
F|-----------------------------------------------------|
C|------11-13-11--------9-11-9-------7-----7-----6-----|
G|---11----------11---9--------9---7-----------6-------|
D|-9----------------7------------5-----------4---------|
   .  .             . .          . .         . .

  B 2:13 - 2:27
Guitar 1
d|-----------------------------------------|
A|-----------------------------------------|
F|-----------6-------8-------9-------------|
C|---------6-------6-------6---------------|
G|-7-7---7-------7-------7-----9-7-6-7-6---|
D|-9-9-9-------9-------9-----------------9-|

Guitar 2
d|-----------------------------------------|
A|-------------------7-------9-------------|
F|-----------9-----------------------------|
C|-----------------------------7-6---7-----|
G|-7-7-7-9-11--7-9-11--7-9-11------9---9-7-|
D|-9-9-------------------------------------|

               -Chords Under Pre-Solo Part A and Solo-
1:59 - 2:13            2:27 -  2:53
Under Pre-Solo         Under Solo
d|-----------------------|
A|-----------------------|
F|-----------------------|
C|-13----11----6----6----|
G|-11----9-----4----6----|
D|-9-----7-----2----4----|


                                -Solo-
2:27 - 2:53
d|-19b+-19b~(20)-16-20-16-17-16----16-16----------------------------------|
A|------------------------------20-------17-19-17-16-17-16------19b(21)19-|
F|---------------------------------------------------------18-16----------|
C|------------------------------------------------------------------------|
G|------------------------------------------------------------------------|
D|------------------------------------------------------------------------|

d|-----------------------------------------------------------------------|
A|-17-19-17-16----16b(17)16-14-16-14-------/16-17-17-/16-17-16-17-/16-17-|
F|-------------18--------------------16-13-------------------------------|
C|-----------------------------------------------------------------------|
G|-----------------------------------------------------------------------|
D|-----------------------------------------------------------------------|

d|-------------------------------------------------------------------------|
A|-16-17-/16-17-16-17-/16-17-16-17-14b(16)-14b(16)14-------14----14-----12-|
F|---------------------------------------------------13/11----11----11\9---|
C|-------------------------------------------------------------------------|
G|-------------------------------------------------------------------------|
D|-------------------------------------------------------------------------|

d|-----------------------------------------------------------------------|
A|--------------------------------------12-------------------------------|
F|-9/8------------------------9-11b(13)----11b(13)11p9h11----------11-13-|
C|-----------------------9-11-----------------------------11-13-14-------|
G|----------9----9-11-11-------------------------------------------------|
D|-----9-12---12---------------------------------------------------------|

d|-----------------------------------------------------------------------|
A|-----------------------------------------------------------------------|
F|-13b(14)-11-/13--------------------------------------------------------|
C|----------------14-/16-13-6h7h9h16p9p7p6-----------------------------6-|
G|-----------------------------------------h9p7p6h7h9h14p9p7p6---6-7-9---|
D|-------------------------------------------------------------9---------|

d|-------------------------------------------------------------------------|
A|-------------------------------------------------------------------------|
F|------------------------------------------------------------------h18p11-|
C|-6-7-------------------------------------------h18p11p9-h21p11p13--------|
G|-----9-h6h7h14p7p6-h16p9p7-h19p11p9-h21p12p11----------------------------|
D|-------------------------------------------------------------------------|

d|------------------------------------------------------------------------|
A|-----------------For some stupid reason I can't figure out the last-----|
F|-p9-h21\20~------couples seconds of the solo.  Anyone figures it out----|
C|-----------------let me know.-------------------------------------------|
G|------------------------------------------------------------------------|
D|------------------------------------------------------------------------|


                            -End Riff-
3:05 - 3:35
4 Times
d|----------------------------------------------------|
A|----------------------------------------------------|
F|----------------------------------------------------|
C|-6---6---4/6---4/6---------6--6---4/6---4/6---------|
G|-4---4---2/4---2/4---------4--4---2/4---2/4---------|
D|---0---0-----0-----000-000---0--0-----0-----0000245-|
     .   .     .     ......                   .......


| /  Slide up
| \  slide down
| h  Hammer-on
| p  Pull-off
| b  Bend
| ~  vibrato
| +  Harmonic
| x  Mute note
Добавлено: 31.10.2013
Другие материалы по этой песне:
  • Аккорды и текст

Страница создана 31.10.2013
http://primanota.ru/all-that-remains/air-that-i-breath-chords.htm
Привет, Гость.
Предлагаем пройти революционный курс по гитаре.
Подарок от PrimaNota.Ru, забирай!