PrimaNota.ru - самый крупный в мире бесплатный архив песенных текстов, аккордов, табулатур и нот


All That Remains - Before The Damned - текст песни, таба, видео

Регистрация Запомнить меня
Войти через:  Facebook Google Twitter Vk Yandex Mail.ru

All That Remains - Before The Damned - текст песни, таба, видео

Печатать
Просмотров: 164
Artist: All that remains
Song: Before the damned
Album: Chiron
Tuning: drop #C

Tabbed by: Jarand Johnsen
E-mail: jarandj@hotmail.no

Hey! It's been a while since my last tab. 
Mainly because all the schoolwork I've been
doing and all that. Also, I haven't been 
tabbing because all the songs I've 
been searching up have already been tabbed on UG.

Anyways! A while ago I started listening to ATR 
but didn't get in touch with the album Chiron 
before now, and I freaking love it! Sooo, 
I searched up this song but I didn't see
any normal tabs(not guitar pro tabs) so 
I decided to tab this by ear, so all the
people who don't have guitar pro may enjoy
this song as much as any other!

Tuning: The tuning for this song is in drop C#.
Basically what you do, is to tune all your
strings a half step down except from the low E-string
 which you tune 1 and a half step down.
Like, drop D and just 1/2 step down from there.  

Here it is! Enjoy! And as always, feedback is much appreciated:)

Intro:
Guitar 1
D#|-------------------------------------------------|
A#|-------------------------------------------------|
F#|-------------------------------------------------|x8
C#|-------------------------------------------------|
G#|00000-00000-00000-00000-000-000------------------|
C#|00000-00000-00000-00000-000-000------------------|
Guitar 2
   
D#|-------------------------------------------------|
A#|-------------------------------------------------|
F#|-7~~~~4~~~~3~~~~---------------------------------|
C#|-7~~~~4~~~~3~~~~1~~~~----------------------------|x2
G#|-5~~~~6~~~~1~~~~1~~~~----------------------------|
C#|----------------1~~~~----------------------------|
Guitar 2
D#|------------------------------------------------|
A#|------------------------------------------------|
F#|------------------------------------------------|
C#|--7-3-0-0-0--7-7-7-3-0--6-3-0-3--7-3-0-0-7-3-0--|\
G#|------------------------------------------------| \
C#|------------------------------------------------|  \
                                                       \
D#|------------------------------------------------|   /x4 
A#|------------------------------------------------|  /
F#|------------------------------------------------| /
C#|-6-3-0-3-8-3-0-3-7-3-0-0-0--7-7-7-3-0-6-3-0-3---|/
G#|------------------------------------------------|
C#|------------------------------------------------|


D#|------------------------------------------------|
A#|------------------------------------------------| 
F#|------------------------------------------------|  
C#|-7-0--0-0-000-0-0-000-0-0-00000000--------------|   
G#|-5-0--0-0-000-0-0-000-0-0-00000000--------------|  
C#|-0-0--0-0-000-0-0-000-0-0-00000000--------------|         
                             
D#|------------------------------------------------|                
A#|------------------------------------------------| 
F#|------------------------------------------------|                
C#|-8-0--0-0-000-0-0-000-0-0-00000000--------------|                
G#|-5-0--0-0-000-0-0-000-0-0-00000000--------------|                
C#|-0-0--0-0-000-0-0-000-0-0-00000000--------------|                
                                                                    
D#|-------------------------------------------------------------|  
A#|-------------------------------------------------------------| 
F#|-------------------------------------------------------------|
C#|-6-6-0-0-000-0-0-6-6-0-0-000-0-0-7-7-0-0-000-0-0-000-0-0-111-|
G#|-4-4-0-0-000-0-0-4-4-0-0-000-0-0-5-5-0-0-000-0-0-000-0-0-111-|
C#|-0-0-0-0-000-0-0-0-0-0-0-000-0-0-0-0-0-0-000-0-0-000-0-0-111-|

Last time:

D#|---------------------------------------|
A#|---------------------------------------|
F#|--------------------------8-8----------|
C#|-7-7---0--------------1---8-8----------|
G#|-5-5-0-0--0-0-0-0-0-0-1-0-6-6----------|
C#|-----0-0--0-0-0-0-0-0-1-0--------------|
 
Chorus:

D#|----------------------------------------------|
A#|----------------------------------------------|
F#|-------5-----------------------------------5--|
C#|-0---3---3-----3--5/7----5~~-----------7-3-5--|
G#|-0-5-----1-0-1----3/5--5-5~~-5-5-5-5-5-7-3-3--|
C#|-0---------------------5-5~~-5-5-5-5-5-7-3----|

D#|-----------------------------------------------|
A#|-----------------------------------------------|
F#|-------5---------------------------------------|
C#|-0---3---3-----3--5/7----5~~-----------7-8-7-10|
G#|-0-5-----1-0-1----3/5--5-5~~-5-5-5-5-5-7-8-7-10|
C#|-0---------------------5-5~~-5-5-5-5-5-7-8-7-10|

Outro:
D#|------------------------------------------------|
A#|------------------------------------------------|
F#|------------------------------------------------|
C#|--7-3-0-0-0--7-7-7-3-0--6-3-0-3--7-3-0-0-7-3-0--|
G#|------------------------------------------------| 
C#|------------------------------------------------|  
                                                       
D#|------------------------------------------------|    
A#|------------------------------------------------|  
F#|------------------------------------------------| 
C#|-6-3-0-3-8-3-0-3-7-3-0-0-0--7-7-7-3-0-6-3-0-3---|
G#|------------------------------------------------|
C#|------------------------------------------------|


D#|-7-3-0-0-0--7-7-7-3-0--6-3-0-3--7-3-0-0-7-3-0---|
A#|------------------------------------------------|
F#|------------------------------------------------|
C#|------------------------------------------------|
G#|------------------------------------------------|
C#|------------------------------------------------|

D#|-6-3-0-3-8-3-0-3-7-3--0-0-0--7-7-7-3-0-6-3-0-3--|
A#|------------------------------------------------|
F#|------------------------------------------------|
C#|------------------------------------------------|
G#|------------------------------------------------|
C#|------------------------------------------------|

D#|-8-5---5----------------------------------------|
A#|-----8---8-5---5--------------------------------|
F#|-------------6---6-3---3------------------------|
C#|---------------------5---5-2---2----------------|
G#|-----------------------------4------------------|
C#|------------------------------------------------|

Guitar 1:
D#|-------------------------------------------------|
A#|-------------------------------------------------|
F#|-------------------------------------------------|x2
C#|-------------------------------------------------|
G#|00000-00000-00000-00000-000-000------------------|
C#|00000-00000-00000-00000-000-000------------------|


Guitar 2 Solo(not quite exact):
D#|----------------------------------------------------|
A#|----------------------------------------------------|
F#|----------------------------------------------------|
C#|-------7-6-7-6-------7---8-11-7-10-10--10-10-9------|
G#|-5-8-7---------7-5-8---8-----------------------10-7-|
C#|----------------------------------------------------|

D#|----------------------------------------------------|
A#|-10---------15------12-13---------------------------|
F#|----9/14-14------14-------14-12-------------13-15-14|
C#|--------------13----------------15-14-13-15---------|
G#|----------------------------------------------------|
C#|----------------------------------------------------|

D#|----------------------------------------------------|
A#|----------------------15-14-13-12-------------------|
F#|-------14-15-14-------------------14-13-12-11-------|
C#|-12-15----------15-12-------------------------15-12-|
G#|----------------------------------------------------|
C#|----------------------------------------------------|

D#|------------------------------------------------------|
A#|------------------------------------------------------|
F#|-10----------9-10-9-----------------------------------|
C#|----12----12--------11----11--------------------------|
G#|-------12--------------12----12-11-10-8-7---------8-12|
C#|------------------------------------------10-7-11-----|

D#|--------------------------------------------14-9------|
A#|--------------------------11-14-17-13----13------11---|
F#|----------------9-12-9-12-------------14------------12|
C#|------8-11-8-11---------------------------------------|
G#|-8-12-------------------------------------------------|
C#|------------------------------------------------------|

D#|---12-8----------11-8---------8-----------------------|
A#|11------11----11------10---10---11-10-8--------------8|
F#|-----------12------------9--------------10-9-7-6-7-9--|
C#|------------------------------------------------------|
G#|------------------------------------------------------|
C#|------------------------------------------------------|

D#|-------9~~~~~~~~~~~~~~~~------------------------------|
A#|-10-11------------------------------------------------|
F#|------------------------------------------------------|
C#|------------------------------------------------------|
G#|------------------------------------------------------|
C#|------------------------------------------------------|

D#|------------------------------------------------------|
A#|------------------------------------------------------|
F#|------------------------------------------------------|
C#|-00000-00000-0000-0-----------------------------------|
G#|-00000-00000-0000-0-----------------------------------|
C#|-00000-00000-0000-0-----------------------------------|

Добавлено: 02.08.2013
Другие материалы по этой песне:
  • Аккорды и текст

Страница создана 02.08.2013
http://primanota.ru/all-that-remains/before-the-damned-chords.htm
Привет, Гость.
Предлагаем пройти революционный курс по гитаре.
Подарок от PrimaNota.Ru, забирай!