PrimaNota.ru - самый крупный в мире бесплатный архив песенных текстов, аккордов, табулатур и нот


All That Remains - Deepest Grey - таба, видео

Регистрация Запомнить меня
Войти через:  Facebook Google Twitter Vk Yandex Mail.ru

All That Remains - Deepest Grey - таба, видео

Печатать
Просмотров: 98
----------------------------------------------------------------------------
		The Deepest Grey - All That Remains
----------------------------------------------------------------------------
Tabbed by:Ryanshopefan1
Email:Guitplayer14@hotmail.com

Tuning:Drop D

I Couldn't Find A TAB Anywhere For This. This Is The Second Solo To The Deepest Grey. He 
Uses A Wah Pedal For this Solo.

I'm Pretty Sure That They're Are Tuned In Drop D, But I'm Tuned In Drop C And Here's 
I Got.
Enjoy =)

e|-------------------------------------------------------------------------|
B|-------------------------------------------------------------------------|
G|--------------------------------------------10*brbr----------------------|
D|-------------------------------------7h9h10------------------------------|
A|-/7~~~-7--/10-9~~~-9--7h9h10-9h10h12-------------------------------------|
E|-------------------------------------------------------------------------|

e|-------------------------------------------------------------------------|
B|-------------------------------------------------------------------------|
G|-5-7b9r-6*~~-6*~~--9-7-5h7p5-4b5rbr~~------------------------------------|
D|-------------------------------------------------------------------------|
A|-------------------------------------------------------------------------|
E|-------------------------------------------------------------------------|

e|-------------------------------------------------------------------------|
B|-------------------------------------------------------------------------|
G|----14b16rp12--------12-14-15b17-12h14p12---------14-16-17b19-14h17p14---|
D|-14----------14~~--14---------------------14~~--16--------------------16~|
A|-------------------------------------------------------------------------|
E|-------------------------------------------------------------------------|

e|-------------------------------------------------------------------------|
B|---------------------------------------------------------15b17r15b17~~~--|
G|---14-16-16h19p16----16h19p16----16h19p16----16h19p16--------------------|
D|-16---------------19----------19----------19---------19------------------|
A|-------------------------------------------------------------------------|
E|-------------------------------------------------------------------------|


| /  Slide Up
| \  Slide Down
| h  Hammer-On
| p  Pull-Off
| ~  Vibrato
| *  Harmonic
| x  Mute Note
============================================================================
Добавлено: 12.09.2013
Другие материалы по этой песне:
  • Аккорды и текст

Страница создана 21.08.2013
http://primanota.ru/all-that-remains/deepest-grey-chords.htm
Привет, Гость.
Предлагаем пройти революционный курс по гитаре.
Подарок от PrimaNota.Ru, забирай!