PrimaNota.ru - самый крупный в мире бесплатный архив песенных текстов, аккордов, табулатур и нот


All That Remains - Asking Too Much - таба, видео

Регистрация Запомнить меня
Войти через:  Facebook Google Twitter Vk Yandex Mail.ru

All That Remains - Asking Too Much - таба, видео

Печатать
Просмотров: 380
Уроки эстрадного вокала в Санкт-Петербурге
Авторы музыки: Mike Martin, Jason Costa, Oli Herbert, Rob Graves, Philip Labonte
Авторы текста: Philip Labonte
Tabbed by: marco
Email: tabsmarco@gmail.com

Tuning:DbAbDbGbBbEb

I'm not sure, it's my first tab, i love this song, please comment and modify errors !
Enjoy!!!

Intro :

Eb|------------------------------------------------------------------------|
Bb|-------------------------------7-10-7-----------------------------------|
Gb|--------6-7-6--------------------------7-9--------6-7-9-----------------|
Db|---------------7-7-9-9-----------------------------------7-7------------|
Ab|-----9-----------------------9----------------9------------------9-9----|
Db|--9----------------------9-----------------9----------------------------|


Eb|------------------------------------------|
Bb|-----------7--------------7--10--7--10*---|
Gb|--------9-----9--7------------------------|
Db|------------------------------------------|
Ab|-----9-----------------9------------------|
Db|--9-----------------9---------------------|


Verse 1 :

Eb|-------------------------------------------------------------|
Bb|-------------------------------------------------------------|
Gb|------4-------4-------4-----4-------------6-7-6-------9-7----|   X2
Db|--2-2-4---2-2-4---2-2-4---2-4-2-----------5-5-5-------7-7----|
Ab|--2-2-2---2-2-2---2-2-2---2-2-2-------5-5-5-5-5---7-7-7-7----|
Db|--------------------------------------5-5-5-5-5---7-7-7-7----|

Verse 2 :

Eb|----------------------------------------------|
Bb|----------------------------------------------|
Gb|----4---4---4---4------6-7-6-7-6--------9-7---|  X2
Db|--2-4-2-4-2-4-2-4-2----5-5-5-5-5--------7-7---|
Ab|--2-2-2-2-2-2-2-2-2----5-5-5-5-5----7-7-7-7---|
Db|-----------------------5-5-5-5-5----7-7-7-7---|

Chorus (Guitar 1) :

Eb|-------------|
Bb|-------------|
Gb|--4----------|
Db|--4---5---7--|  X4
Ab|--2---5---7--|
Db|------5---7--|

Chorus (Guitar 2) :

Eb|---------------------------------------------------------------|
Bb|--------------------------2-3-------------------------7--------|
Gb|------4-4-----4-----4---4----------7---6------------7---7------|   X2
Db|----------------------------------------------------------9----|
Ab|--2-2-----2-2---2-2---2--------5-5---5---5-------9-------------|
Db|-----------------------------------------------9---------------|


Eb|----------------------------------------------------------------------------|
Bb|----------------------------------------2-3----------------------5----------|
Gb|--4-----------------4-4-----4-----4---4----------7---6---------4---4---4----|  
Db|--4--5--7----------------------------------------------------4-------4------|
Ab|--2--5--7-------2-2-----2-2---2-2---2--------5-5---5---5---2----------------|
Db|-----5--7-------------------------------------------------------------------|

Verse 1 
Verse 2 
Chorus
SOLO (sorry !)

Bridge (Guitar 1) :

Eb|-----------------------------------------------------------------------------|
Bb|-----------------------------------------------------------------------------|
Gb|----------------4-4-4-4-4--------------------4-4-4-4-4-----------------------|  
Db|--4--7----------4-4-4-4-4-----5-5-5-5-5------4-4-4-4-4----5-5-5-5-5-5-5--7---|
Ab|--4--7----------2-2-2-2-2-----5-5-5-5-5------2-2-2-2-2----5-5-5-5-5-5-5--7---|
Db|--4--7------------------------5-5-5-5-5-------------------5-5-5-5-5-5-5--7---|

Bridge (Guitar 2) :

Eb|--------------------------------------2--5--2-----2-----------2--5--2------------------------|
Bb|-----------2--3--2-----------------------------5-----------------------2---------------------|
Gb|----2--4------------2--4--------2--4-------------------2--4---------------5-5-5-5-5--3-2-----|  
Db|---------------------------------------------------------------------------------------------|
Ab|---------------------------------------------------------------------------------------------|
Db|---------------------------------------------------------------------------------------------|

Chorus (Guitar 1)
End of song.
Добавлено: 02.02.2014
Другие материалы по этой песне:
  • Аккорды и текст

Страница создана 02.02.2014
http://primanota.ru/all-that-remains/asking-too-much-chords.htm
Привет, Гость.
Предлагаем пройти революционный курс по гитаре.
Подарок от PrimaNota.Ru, забирай!