PrimaNota.ru - самый крупный в мире бесплатный архив песенных текстов, аккордов, табулатур и нот


All That Remains - Clarity - текст песни, таба, видео

Регистрация Запомнить меня
Войти через:  Facebook Google Twitter Vk Yandex Mail.ru

All That Remains - Clarity - текст песни, таба, видео

Печатать
Просмотров: 118
song: Clarity
artist: All That Remains
album: Behind Silence And Solitude
year: 2002
tuning: B-Standard (BEADF#B)

This is an old All That Remains song from the album Behind Silence And Solitude. As you
see I tabbed out almost the whole song except for the solo and the rhythm part. I'm not
at tabbing solos or hearing out either. This is a perfect tab, but the best I can do. 
enjoy playing this song, it shouldn't be a hard song to play because this song is
slow.


intro: (played twice) Guitar I & II
B|-----------------------------------------------------------------------|
F#|----------------------------------------------------------------------|
D|-----------------------------------------------------------------------|
A|------------9----9--------10----10-------------10-9----9---------------|
E|---------------------------------------7-9-10-------12---12-10-9-------|
B|-----121212---12---101010----10----888---------------------------12----|
        . . .    .    . . .     .    ...

B|-----------------------------------------------------------------------|
F#|----------------------------------------------------------------------|
D|-----------------------------------------------------------------------|
A|------------9----9--------10----10-------------------------------------|
E|---------------------------------------777-999-101010-121212-----------|
B|-----121212---12---101010----10----888---------------------------------|
        . . .    .    . . .     .    ... ... ...  . . .  . . .

fill: (played once) Guitar III comes in for the second time you play the intro.
B|----------------------------------|
F#|---------------------------------|
D|-----9--11--12~---9--11--16~~~----|
A|----------------------------------|
E|-----7--9---10~---7--9---14~~~----|
B|----------------------------------|

intro: Guitar I
B|-----------------------------------------------------------------------|
F#|----------------------------------------------------------------------|
D|-----------------------------------------------------------------------|
A|------------9----9--------10----10-------------10-9----9---------------|
E|---------------------------------------7-9-10-------12---12-10-9-------|
B|-----121212---12---101010----10----888---------------------------12----|
        . . .    .    . . .     .    ...

B|-----------------------------------------------------------------------|
F#|----------------------------------------------------------------------|
D|-----------------------------------------------------------------------|
A|------------9----9--------10----10-------------------------------------|
E|---------------------------------------777-999-101010-121212-----------|
B|-----121212---12---101010----10----888---------------------------------|
        . . .    .    . . .     .    ... ... ...  . . .  . . .

B|-----------------------------------------------------------------------|
F#|----------------------------------------------------------------------|
D|-----------------------------------------------------------------------|
A|------------9----9--------10----10-------------10-9----9---------------|
E|---------------------------------------7-9-10-------12---12-10-9-------|
B|-----121212---12---101010----10----888---------------------------12----|
        . . .    .    . . .     .    ...

B|-----------------------------------------------------------------------|
F#|----------------------------------------------------------------------|
D|-----------------------------------------------------------------------|
A|------------9----9--------10----10-------------------------------------|
E|---------------------------------------121212-101010-999-777-----------|
B|-----121212---12---101010----10----888---------------------------------|
        . . .    .    . . .     .    ...

harmonized intro: Guitar II
B|------------------------------------------------------------------------------|
F#|-----------------------------------------------------------------------------|
D|------------------------------------------------------------------------------|
A|------------12----12--------14----14--------------14-12----12-----------------|
E|-----------------------------------------10-12-14-------15---15-14-12---------|
B|-----121212----12----101010----10----888------------------------------15------|
        . . .     .     . . .     .    ...

B|------------------------------------------------------------------------------|
F#|-----------------------------------------------------------------------------|
D|------------------------------------------------------------------------------|
A|------------12----12--------14----14------------------------------------------|
E|-----------------------------------------101010-121212-141414-151515----------|
B|-----121212----12----101010----10----888--------------------------------------|
        . . .     .     . . .     .    ...  . . .  . . .  . . .  . . .

B|------------------------------------------------------------------------------|
F#|-----------------------------------------------------------------------------|
D|------------------------------------------------------------------------------|
A|------------12----12--------14----14--------------14-12----12-----------------|
E|-----------------------------------------10-12-14-------15---15-14-12---------|
B|-----121212----12----101010----10----888------------------------------15------|
        . . .     .     . . .     .    ...

B|------------------------------------------------------------------------------|
F#|-----------------------------------------------------------------------------|
D|------------------------------------------------------------------------------|
A|------------12----12--------14----14------------------------------------------|
E|-----------------------------------------151515-141414-121212-101010----------|
B|-----121212----12----101010----10----888--------------------------------------|
        . . .     .     . . .     .    ...


verse: (played four times) Both Guitar I & II
B|------------------------------------------------------------------------------------------------------|
F#|-----------------------------------------------------------------------------------------------------|
D|------------------------------------------------------------------------------------------------------|
A|-------------------------5----5----5----5-------------------------------------------------------------|
E|-----7----7----7----7------------------------5----5----5----5------------7---------------7------------|
B|-------55---55---55---55---55---55---55---55---33---33---33---33---7h8h10--10-8-7--7h8h10--10-8-7-----|
         ..   ..   ..   ..   ..   ..   ..   ..   ..   ..   ..   ..


chorus: (played twice) Both Guitar I & II
B|------------------------------------------------------------------------------------------|
F#|-----------------------------------------------------------------------------------------|
D|------------------------------------------------------------------------------------------|
A|------------------------------------------------------------------------------------------|
E|-----99-----99-----99-----99--55-----55-----55---------------7---------------7------------|
B|-----77-777-77-777-77-777-77--33-333-33-333-33--3333---7h8h10--10h8h7--7h8h10--10-8-7-----|
          ...    ...    ...        ...    ...     ....

fill: (Played twice) Guitar III
B|----------------------------------------------------------|
F#|---------------------------------------------------------|
D|----------------------------------------------------------|
A|----------------------------------------------------------|
E|----------------------------------7~~~---10~~~---9~~~-----|
B|--------------------------//12\\--------------------------|


verse: (played four times) Both Guitar I & II
B|------------------------------------------------------------------------------------------------------|
F#|-----------------------------------------------------------------------------------------------------|
D|------------------------------------------------------------------------------------------------------|
A|-------------------------5----5----5----5-------------------------------------------------------------|
E|-----7----7----7----7------------------------5----5----5----5------------7---------------7------------|
B|-------55---55---55---55---55---55---55---55---33---33---33---33---7h8h10--10-8-7--7h8h10--10-8-7-----|
         ..   ..   ..   ..   ..   ..   ..   ..   ..   ..   ..   ..

chorus: (played four times) Both Guitar I & II
B|------------------------------------------------------------------------------------------|
F#|-----------------------------------------------------------------------------------------|
D|------------------------------------------------------------------------------------------|
A|------------------------------------------------------------------------------------------|
E|-----99-----99-----99-----99--55-----55-----55---------------7---------------7------------|
B|-----77-777-77-777-77-777-77--33-333-33-333-33--3333---7h8h10--10h8h7--7h8h10--10-8-7-----|
          ...    ...    ...        ...    ...     ....

fill: (played four times) Guitar III
B|----------------------------------------------------------|
F#|---------------------------------------------------------|
D|----------------------------------------------------------|
A|----------------------------------------------------------|
E|----------------------------------7~~~---10~~~---9~~~-----|
B|--------------------------//12\\--------------------------|

harmonized fill: (played twice) Guitar IV
B|------------------------------------------------------------|
F#|-----------------------------------------------------------|
D|------------------------------------------------------------|
A|------------------------------------------------------------|
E|----------------------------------10~~~---14~~~---12~~~-----|
B|--------------------------//12\\----------------------------|

bridge: (played four times) Both Guitar I & II
B|-------------------------------------------------|
F#|------------------------------------------------|
D|-----5----5----4----4----7----7----2----2--------|
A|-------77---77---55---55---99---99---44---44-----|
E|-------------------------------------------------|
B|-------------------------------------------------|
         ..   ..   ..   ..   ..   ..   ..   ..

harmonized bridge (played twice) Guitar II
B|-----------------------------------------------------------------|
F#|----------------------------------------------------------------|
D|-----9------9------7----7----12------12------11------11----------|
A|-------1010---1010---99---99----1414----1414----1212----1212-----|
E|-----------------------------------------------------------------|
B|-----------------------------------------------------------------|
          . .    . .   ..   ..     . .     . .     . .     . .

solo/rhythm: I don't know the solo or the rhythm though, I'm not good at tabbing or
out solos like I said before on the other tabs. Once again if you guys figure out the solo
the rhythm post it.


chorus: (played four times) Both Guitar I & II
B|------------------------------------------------------------------------------------------|
F#|-----------------------------------------------------------------------------------------|
D|------------------------------------------------------------------------------------------|
A|------------------------------------------------------------------------------------------|
E|-----99-----99-----99-----99--55-----55-----55---------------7---------------7------------|
B|-----77-777-77-777-77-777-77--33-333-33-333-33--3333---7h8h10--10h8h7--7h8h10--10-8-7-----|
          ...    ...    ...        ...    ...     ....

fill: (played four times) Guitar III
B|----------------------------------------------------------|
F#|---------------------------------------------------------|
D|----------------------------------------------------------|
A|----------------------------------------------------------|
E|----------------------------------7~~~---10~~~---9~~~-----|
B|--------------------------//12\\--------------------------|

harmonized fill: (played four times) Guitar IV
B|------------------------------------------------------------|
F#|-----------------------------------------------------------|
D|------------------------------------------------------------|
A|------------------------------------------------------------|
E|----------------------------------10~~~---14~~~---12~~~-----|
B|--------------------------//12\\----------------------------|

verse: (played four times) Both Guitar I & II
B|------------------------------------------------------------------------------------------------------|
F#|-----------------------------------------------------------------------------------------------------|
D|------------------------------------------------------------------------------------------------------|
A|-------------------------5----5----5----5-------------------------------------------------------------|
E|-----7----7----7----7------------------------5----5----5----5------------7---------------7------------|
B|-------55---55---55---55---55---55---55---55---33---33---33---33---7h8h10--10-8-7--7h8h10--10-8-7-----|
         ..   ..   ..   ..   ..   ..   ..   ..   ..   ..   ..   ..

outro: (played six times) Both Guitar I & II
B|------------|
F#|-----------|
D|------------|
A|------------|
E|-----99-----|
B|-----77-----|
Добавлено: 27.12.2013
Другие материалы по этой песне:
  • Аккорды и текст

Страница создана 27.12.2013
http://primanota.ru/all-that-remains/clarity-chords.htm
Привет, Гость.
Предлагаем пройти революционный курс по гитаре.
Подарок от PrimaNota.Ru, забирай!