PrimaNota.ru - самый крупный в мире бесплатный архив песенных текстов, аккордов, табулатур и нот


Airbourne - Stand And Deliver - таба, видео

Регистрация Запомнить меня
Войти через:  Facebook Google Twitter Vk Yandex Mail.ru

Airbourne - Stand And Deliver - таба, видео

Печатать
Просмотров: 49
-------------------------------------------------------------------------------
                             Stand And Deliver - Airbourne
-------------------------------------------------------------------------------
Tabbed by: Michael Dörste       
E-mail: Bauergokel@web.de

Tuning: Standart


Intro (Played 6 Times):
e|------------------3---------------------------33----3-----------------------------|
B|------------------3---------------------------33----3-----------------------------|
G|------------------0--2------------------------00--2-0-----------------------------|
D|-0-2--0-2--0-2--0-0--2-------0-2--0-2--0-2--0-00--2-0-----------------------------|
A|-0-2--0-2--0-2--0-x--0-------0-2--0-2--0-2--0-xx--0-x-----------------------------|
E|-0-0--0-0--0-0--0-3----------0-0--0-0--0-0--0-33----3-----------------------------|

Verse (Played 4 Times):

  "You Took My Guitar, You Took My Amp" ....
e|-------------------------------------------------------33----3----------------|
B|-------------------------------------------------------33----3----------------|
G|-------------------------------------------------------00--2-0----------------|
D|-2------------------------------------0-2--0-2--0-2--0-00--2-0----------------|
A|-2------------------------------------0-2--0-2--0-2--0-xx--0-x----------------|
E|-0------------------------------------0-0--0-2--0-0--0-33----3----------------|


Bridge:

 "With The Devil At My Side, ..."                                             
e|---------------------------------------------------------------------------|
B|---------------------------------------------------------------------------|
G|-2-2-2-------------------2-2-2-------------------2-2-2---------------------|
D|-2-2-2--2-5-2-4-2-2-0----2-2-2--2-5-2-4-2-2-0----2-2-2--2-5-2-4-2-2-0------|
A|-0-0-0-------------------0-0-0-------------------0-0-0---------------------|
E|---------------------------------------------------------------------------|

"To Hell, Hell, Hell And Back, Yeah! I'm Gonna"
e|--------------------------------------------------------------|
B|---------------------------------------------------3-3--------|
G|-2-0--2-0--2-0--2-0--2-2--4----4----4----4---4-4---2-2--------|
D|-2-0--2-0--2-0--2-0--2-2--4----4----4----4---4-4---0-0--------|
A|-0-0--0-0--0-0--0-0--0-0--2-0--2-0--2-0--2-0-2-2--------------|
E|--------------------------------------------------------------|


Chorus: (You Just Play the Intro 2 Times at the Chorus)
e|------------------3---------------------------33----3-----------------------------|
B|------------------3---------------------------33----3-----------------------------|
G|------------------0--2------------------------00--2-0-----------------------------|
D|-0-2--0-2--0-2--0-0--2-------0-2--0-2--0-2--0-00--2-0-----------------------------|
A|-0-2--0-2--0-2--0-x--0-------0-2--0-2--0-2--0-xx--0-x-----------------------------|
E|-0-0--0-0--0-0--0-3----------0-0--0-0--0-0--0-33----3-----------------------------|

Guitar Solo:
e|-------------------------------------------------------------------------------------------------------------
B|----12----12-12-----------------------------12----12-12-------15-------------12----12-12---------------------
G|----12----12-12----12-14-12-------12--------12----12-12--14b16---14\12-------12----12-12----12-14-12-------12
D|-14----14-------14----------14-12----14--14----14-------------------------14----14-------14----------14-12---
A|-------------------------------------------------------------------------------------------------------------
E|-------------------------------------------------------------------------------------------------------------

  --------------12-12-------12-12-------------------------|
  --------------12-12-------12-12--15-12------------------|
  -----12-14b16-------14b16--------------14-12----12------|
  -14------------------------------------------14---------|
  --------------------------------------------------------|
  --------------------------------------------------------|

e|-------------------------------------------------------------------------------------------------------------
B|-------------------------------------------------------------------------------------------------------------
G|---------------7-5-----------------------------------------7-5-------5-7-5---5-5-----------12-14-12----12-14-
D|-5-7-7-x-7-7-5------5-7-7-x-7-0-7-0-5-0-4-0--5-7-7-x-7-7-5-----5-7-7-------7-----7--/12-14----------14-------
A|-------------------------------------------------------------------------------------------------------------
E|-------------------------------------------------------------------------------------------------------------

  ----------------------|
  12----12-15-12----12--|
  ---14----------14-----|
  ----------------------|
  ----------------------|
  ----------------------|

(4 times)
e|-------12-12-------12-12-------12-12-------12-12-12-12---------------------|
B|-------12-12-------12-12-------12-12-------12-12-12-12---------------------|
G|-14b16-------14b16-------14b16-------14b16---------------------------------|
D|---------------------------------------------------------------------------|
A|---------------------------------------------------------------------------|
E|---------------------------------------------------------------------------|

e|---------------------------------------------------12---------------------------------------------------
B|-15b17br-12-12-14b15br-14b15br-14b15br-14b15br-12-----12-15b17br-15b17br-15b17br-12-12-12-15-12-14b15br-
G|--------------------------------------------------------------------------------------------------------
D|--------------------------------------------------------------------------------------------------------
A|--------------------------------------------------------------------------------------------------------
E|--------------------------------------------------------------------------------------------------------

  ------------------------------------|
  14b15br-14b15-14b15br-12------------|
  ------------------------------------|
  ----------------------------------2-|
  ----------------------------------2-|
  --------------------------\-0-2-3-0-|

Lead Guitar, Bridge after the third Verse 
e|-12-12-12-------12-----------------------|
B|-12-12-12-------12-----------------------|
G|----------14b16--------------------------|
D|-----------------------------------------|
A|-----------------------------------------|
E|-----------------------------------------|

Outro (played 4 times)                                      
e|-------12-12-------12-12-------12-12-------12-12-12-12-| 
B|-------12-12-------12-12-------12-12-------12-12-12-12-| 
G|-14b16-------14b16-------14b16-------14b16-------------| 
D|-------------------------------------------------------| 
A|-------------------------------------------------------| 
E|-------------------------------------------------------| 

(played one time)                                            (played 8 times)
e|-----------------------------------------------------------||----------------||------------------|
B|-2-3-4-5-6-7-8-9-10-11-12-13-14-15-16-17-18--15b17br-15b17-||-------12-15-12-||------------------|
G|-2-3-4-5-6-7-8-9-10-11-12-13-14-15-16-17-18----------------||-14b16----------||-14b16-14b16------|
D|-----------------------------------------------------------||----------------||---------------2--|
A|-----------------------------------------------------------||----------------||---------------2--|
E|-----------------------------------------------------------||----------------||-------------\-0--|

************************************

| /   slide up
| \   slide down
| h   hammer-on
| p   pull-off
| ~   vibrato
| +   harmonic
| x   Mute note
| b   Bend
| pb  Pre-bend
| br  Bend release
| pbr Pre-bend release
| brb Bend release bend

************************************
Добавлено: 22.04.2016
Другие материалы по этой песне:
  • Аккорды и текст

Страница создана 22.04.2016
http://primanota.ru/airbourne/stand-and-deliver-chords.htm
Привет, Гость.
Предлагаем пройти революционный курс по гитаре.
Подарок от PrimaNota.Ru, забирай!