PrimaNota.ru - самый крупный в мире бесплатный архив песенных текстов, аккордов, табулатур и нот


Airbourne - Woman Like That - таба, видео

Регистрация Запомнить меня
Войти через:  Facebook Google Twitter Vk Yandex Mail.ru

Airbourne - Woman Like That - таба, видео

Печатать
Просмотров: 26
--------------------------------------------------------------------------------------------
                            Airbourne - Woman Like That  (No Solos!!!)
-------------------------------------------------------------------------------------------- 

Standard Tuning (E A D G B E) 


Guitar 1 is Lead 
Guitar 2 is Rhythm 

Intro

Guitar 1 

--------------------------------------------------------------------------------------------
--------------------------------------------------------------------------------------------
--------------------------------------------------------------------------------------------
--5---------35h3p-------2--------5----------------------------------------------------------
--------------------------------------------------------------------------------------------
--------------------------------------------------------------------------------------------

Guitar 2

--------------------------------------------------------------------------------------------
--8---8---8---8---6---6---6---5---8---8---8---8---8---8---8---8----------------------------
----7---7---7---7---5---5---5---5---7---7---7---7---7---7---7---7---------------------------
--------------------------------------------------------------------------------------------
--------------------------------------------------------------------------------------------
--------------------------------------------------------------------------------------------

Main riff 

(Both Guitars)
--------------------------------------------           ----------------------------     
---------------------------5--5--6--6--5----           ----------------------------
---------------------------5--5--5--5--5----  X3       --------------------5--3----
-///---5---5---3---3---5---5--5--5--5--5----  Then     --5---5---3---3--5--5--3----
-///---5---5---3---3---5---3--3--3--3--3----           --5---5---3---3--5--3--1----
-///---3---3---1---1---3--------------------           --3---3---1---1--3----------


Verse

Guitar 1

-----------------------------------------            --------------------------------------
-----------------------------------------            --------------------------------------
-----------------------5---5---3---35h3p-   X3       ----------------------5---3-----------
---5---5---3---35h3p---------------------   Then     ---5---5---3---3h3p---5---3-----------
-----------------------------------------            ----------------------3---1------------
-----------------------------------------            --------------------------------------


Guitar 2

----------------------------------------            --------------------------------------
----------------------------------------            --------------------------------------
----------------------------------------    X3      -----------------------5---3----------
-----------------------5---5---3--------    Then    -----------------------5---3---------- 
---5---5---3-----------3---3---3--------            ---5---5---3-----------3---1----------
---3---3---3----------------------------            ---3---3---3--------------------------


Chorus

(Both Guitars)
--------------------------------------------           ----------------------------     
---------------------------5--5--6--6--5----           ----------------------------
---------------------------5--5--5--5--5----  X5       --------------------5--3----
-///---5---5---3---3---5---5--5--5--5--5----  Then     --5---5---3---3--5--5--3----
-///---5---5---3---3---5---3--3--3--3--3----           --5---5---3---3--5--3--1----
-///---3---3---1---1---3--------------------           --3---3---1---1--3----------




Second Verse is same as first verse

Second Chorus is the same as the first Chorus (Except for Guitar 1's solo at the end) 

During Solo Guitar 2 plays Main

After the solo Guitar 1 plays the verse but Guitar 2 doesn't until the third repeat

Then a chorus and then the outro


Outro

(Both Guitars)

---------------------------------------------------
---------------------------------------------------
---------------------------------------------------  X2
---------------------------5---3---5---3---3---5---  
---5---3---5---3---3---5---3---3---3---3---3---3---
---3---3---3---3---3---3--------------------------- 


Then a Main and then finish

Finish

---------------------------------------------------
---------------------------------------------------
-----------------------5---3-----------------------
---5---5---3---3---5---5---3---5-------------------
---5---5---3---3---5---3---1---5-------------------
---3---3---1---1---3-----------3-------------------






























Добавлено: 22.04.2016
Другие материалы по этой песне:
  • Аккорды и текст

Страница создана 22.04.2016
http://primanota.ru/airbourne/woman-like-that-chords.htm
Привет, Гость.
Предлагаем пройти революционный курс по гитаре.
Подарок от PrimaNota.Ru, забирай!