PrimaNota.ru - самый крупный в мире бесплатный архив песенных текстов, аккордов, табулатур и нот


Airbourne - Heartbreaker - текст песни, таба, бас-таба, видео

Регистрация Запомнить меня
Войти через:  Facebook Google Twitter Vk Yandex Mail.ru

Airbourne - Heartbreaker - текст песни, таба, бас-таба, видео

Печатать
Просмотров: 179
Авторы музыки: Ryan O'Keeffe, Joel O'Keeffe
Авторы текста: Ryan O'Keeffe, Joel O'Keeffe
Intro

E----------------------------------------------------------|
B---------3----3--3-3--3-3-3--------3----3-----------------|
G--2-2----x----x--x-x--x-x-x---2----x----x-----2--2-2------|
D--2-2----4----5--4h5--5-5-5---2----5----4-----2--2-2------|
A--0-0-00---00-----------------0-00---00----3bp0--0-0------|
E-----------------------------------------------------3----|
       Play intro 4 times

Verse

--------------------------------------------------------------------------|
--------------------3-3-------3-3---------------------------3-3-------3-3-|
-2------------------x-x-------x-x-------2-2-----------------x-x-------x-x-|
-2------------------5-5-------4-4-------2-2-----------------5-5-------4-4-|
-0-0000000000000000-----00000-----00000-0-0-000000000000000-----00000-----|
--------------------------------------------------------------------------|


----------------------------------------------------------------------|
-------------------------------3-3--3-3--3-3---3-3--------------------|
-------2-2------0h2-2----2-----x-x--x-x--x-x---x-x--2-2----2-0h2------|
-------2-2------0h2-2----2-----5-5--5-5--4-4---4-4--2-2----2-0h2------|
-00000-0-0-0000-0-0-0-00-0-000----00---------00-----0-0-00-0-0-0-00---|
----------------------------------------------------------------------|


Pre Chorus

------x----------x----------------------------------|
------3----------3----------------------------------|
------0----------2------2----/14-14-14-14-14-14-----|
------0----------0------2----/14-14-14-14-14-14-----|
--3-2-2-----2-3--0--3-2-0-----0--0--0--0--0--0------|
------3---3------x----------------------------------|


Chorus

-------x----------x------------------|---------x-------------------------|
-------3----------3------------------|---------3-------------------------|
--2----0----------2-------2--2-2-2---|----2----0---------2-----2-----2-2-|
--2-2--0----------0-------2--2-2-2---|----2-2--0---------0-----0-----0-0-|
--0-2--2-----2-3--0--3-2--0--0-0-0---|----0-2--2----2-3--0-3-4-0-3-4-0-0-|
----0--3---3------x------------------|------0--3--3----------------------|
     Play this 3 times and then do ....this

Repeat Intro, verse, pre chorus and chorus

Break

--------------------------------------------------------------------------|
--------------------------------------------------------------------------|
9-9-----6-----7----6h7-7-7-7----9-----6-----7---7/12-12-12-12-----9-9-----|
9-9-----7-----7----7-7-7-7-7----9-----7-----7---7/12-12-12-12-----9-9-----|
7-7-0-0---0-0---00--------------7-0-0---0-0---0-------------------7-7-0-0-|
--------------------------------------------------------------------------|


---------------------------------|
---------------------------------|
--6-----7---6h7--9-9-9-7-7-7-----|
--7-----7---7-7--9-9-9-7-7-7-----|
----0-0---0------7-7-7-5-5-5-----|
---------------------------------|


I don't know the solo so play the verse underneath it.

Repeat pre chorus and then chorus again before finishing with the intro but play it a 
looser now. End on the 220 chord
Добавлено: 09.08.2013
Другие материалы по этой песне:
  • Аккорды и текст

Страница создана 09.08.2013
http://primanota.ru/airbourne/heartbreaker-chords.htm
Привет, Гость.
Предлагаем пройти революционный курс по гитаре.
Подарок от PrimaNota.Ru, забирай!