PrimaNota.ru - самый крупный в мире бесплатный архив песенных текстов, аккордов, табулатур и нот


Adelitas Way - Undivided - таба, видео

Регистрация Запомнить меня
Войти через:  Facebook Google Twitter Vk Yandex Mail.ru

Adelitas Way - Undivided - таба, видео

Печатать
Просмотров: 176
Авторы: Rick DeJesus, Xandy Barry

intro and verse

play piano in this part, but you can play in guitar

     Q.     Q.     Q       Q.     Q.     Q       Q.     Q.     Q     
E||---------------------|---------------------|---------------------|
B||---------------------|---------------------|---------------------|
G||--4------4------4----|--4------4------4----|--2------2------2----|
D||--5------5------5----|--5------5------5----|--5------5------5----|
A||--7------7------7----|--5------5------5----|--3------3------3----|
E||---------------------|---------------------|---------------------|


  Q.     Q.     Q      
---------------------||
---------------------||
--2------2------2----||
--5------5------5----||
--3------3------3----||
---------------------||




Duration Legend
---------------
W - whole
H - half
Q - quarter
E - 8th
S - 16th
T - 32nd
X - 64th
. - note dotted
|-n-|  - n-tuplets
Добавлено: 30.05.2016
Вам также может быть интересно:
Другие материалы по этой песне:
  • Аккорды и текст

Страница создана 30.05.2016
http://primanota.ru/adelitas-way/undivided-chords.htm
Привет, Гость.
Предлагаем пройти революционный курс по гитаре.
Подарок от PrimaNota.Ru, забирай!