PrimaNota.ru - самый крупный в мире бесплатный архив песенных текстов, аккордов, табулатур и нот


Adelitas Way - We Came - таба, видео

Регистрация Запомнить меня
Войти через:  Facebook Google Twitter Vk Yandex Mail.ru

Adelitas Way - We Came - таба, видео

Печатать
Просмотров: 66
Авторы: Rick DeJesus, Trevor "Tre" Stafford, Robert Sarkis Zakaryan

-------------------------------------------------------------------------------
                             Adelitas Way - We Came
-------------------------------------------------------------------------------
Tuning:Half step Down
     
Intro
 
D#||--------------------------|
A#||--------------------------|
F#||--------------------------|
C#||--------2--2--------2--2--|
G#||--------------------------|
D#||--0--0--------0--0--------|


 
---------------------------------------------------------------------------------
---------------------------------------------------------------------------------
---------------------------------------------------------------------------------
-----------2--2------------------------------------------------------------------
------------------------------------------------------------5--5--5--5--2--2--2--
-----0--0--------0--0--0--3--3--3--3--3--3--3--3--x-x-x-x------------------------


Rythym after intro      
|------------------------------------------||
|------------------------------------------||
|--4----------------0--------0------4------||
|--2----------------2--------5------4------||
|--2----------------0--------2------2------||
|-------------------3--------0-------------||


************************************

| /   slide up
| \   slide down
| h   hammer-on
| p   pull-off
| ~   vibrato
| +   harmonic
| x   Mute note
| b   Bend
| pb  Pre-bend
| br  Bend release
| pbr Pre-bend release
| brb Bend release bend
L= hold time note
************************************
Добавлено: 25.04.2016
Другие материалы по этой песне:
  • Аккорды и текст

Страница создана 25.04.2016
http://primanota.ru/adelitas-way/we-came-chords.htm
Привет, Гость.
Предлагаем пройти революционный курс по гитаре.
Подарок от PrimaNota.Ru, забирай!