PrimaNota.ru - самый крупный в мире бесплатный архив песенных текстов, аккордов, табулатур и нот


Adelitas Way - Getaway - таба, видео

Регистрация Запомнить меня
Войти через:  Facebook Google Twitter Vk Yandex Mail.ru

Adelitas Way - Getaway - таба, видео

Печатать
Просмотров: 88
Новый альбом группы 'Черный Кузнец' по культовому сериалу 'Сверхъестественное'!
[Intro]

[guitar 1]
D#||----------------------------|--------------------------|
A#||----------------------------|--------------------------|
F#||--7/9--9--9--4--4--4--7--7--|--7--4--4--4--7--4--7--4--|
C#||----------------------------|--------------------------|
G#||----------------------------|--------------------------|
C#||----------------------------|--------------------------|
               
D#|----------------------------|--------------------------|-------------------|
A#|----------------------------|--------------------------|-------------------|
F#|--7/9--9--9--4--4--4--7--7--|--7--4--4--4--7--4--7--4--|-------------------|
C#|----------------------------|--------------------------|--9b---------7b----|
G#|----------------------------|--------------------------|-------------------|
C#|----------------------------|--------------------------|-------------------|


[guitar 1] [*play during rythym of guitar 2] 
D#|----------------------------|--------------------------|
A#|----------------------------|--------------------------|
F#|--7/9--9--9--4--4--4--7--7--|--7--4--4--4--7--4--7--4--|
C#|----------------------------|--------------------------|
G#|----------------------------|--------------------------|
C#|----------------------------|--------------------------|
  
D#|----------------------------|--------------------------|
A#|----------------------------|--------------------------|
F#|--7/9--9--9--4--4--4--7--7--|--7--4--4--4--7--4--7--4--|
C#|----------------------------|--------------------------|
G#|----------------------------|--------------------------|
C#|----------------------------|--------------------------|
   
D#|--------------------------|--------------------------|
A#|--------------------------|--------------------------|
F#|--------------------------|--------------------------|
C#|--9--9--9--9--9--9--9--9--|--7--7--7--7--7--7--7--7--|
G#|--------------------------|--------------------------|
C#|--------------------------|--------------------------|
                         
D#|--------------------------|--------------------------||
A#|--------------------------|--------------------------||
F#|--------------------------|--------------------------||
C#|--9--9--9--9--9--9--9--9--|--7--7--7--7--7--7--7--7--||
G#|--------------------------|--------------------------||
C#|--------------------------|--------------------------||


[Guitar 2 Rythym]                                                       

D#||--------------------------|
A#||--------------------------|
F#||--9--9--9--9--9--9--9--9--|
C#||--9--9--9--9--9--9--9--9--|
G#||--7--7--7--7--7--7--7--7--|
C#||--------------------------|

D#|--------------------------|--------------------------|
A#|--------------------------|--------------------------|
F#|--9--9--9--9--9--9--9--9--|--9--9--9--9--9--9--9--9--|
C#|--9--9--9--9--9--9--9--9--|--9--9--9--9--9--9--9--9--|
G#|--7--7--7--7--7--7--7--7--|--7--7--7--7--7--7--7--7--|
C#|--------------------------|--------------------------|
 
D#|--------------------------|--------------------------|
A#|--------------------------|--------------------------|
F#|--9--9--9--9--9--9--9--9--|--7--7--7--7--7--7--7--7--|
C#|--9--9--9--9--9--9--9--9--|--7--7--7--7--7--7--7--7--|
G#|--7--7--7--7--7--7--7--7--|--5--5--5--5--5--5--5--5--|
C#|--------------------------|--------------------------|
  
D#|--------------------------|--------------------------|
A#|--------------------------|--------------------------|
F#|--7--7--7--7--7--7--7--7--|--------------------------|
C#|--7--7--7--7--7--7--7--7--|--9--9--9--9--9--9--9--9--|
G#|--5--5--5--5--5--5--5--5--|--7--7--7--7--7--7--7--7--|
C#|--------------------------|--7--7--7--7--7--7--7--7--|
  
D#|--------------------------|
A#|--------------------------|
F#|--------------------------|
C#|--9--9--9--9--9--9--9--9--|
G#|--7--7--7--7--7--7--7--7--|
C#|--7--7--7--7--7--7--7--7--|


[Verse]
 
D#|--------------------------|
A#|--------------------------|
F#|--9--9--x--9--9--9--x--9--|
C#|--9--9--x--9--9--9--x--9--|
G#|--7--7--x--7--7--7--x--7--|
C#|--------------------------|

D#|---------------------------|--------------------------|
A#|---------------------------|--------------------------|
F#|--9--9--x--9--9--9/12------|--9--9--x--9--9--9--x--9--|
C#|--9--9--x--9--9--9/12------|--9--9--x--9--9--9--x--9--|
G#|--7--7--x--7--7--7/10------|--7--7--x--7--7--7--x--7--|
C#|---------------------------|--------------------------|
 
D#|---------------------------|--------------------------|
A#|---------------------------|--------------------------|
F#|--9--9--x--9--9--9/12------|--7--7--x--7--7--7--x--7--|
C#|--9--9--x--9--9--9/12------|--7--7--x--7--7--7--x--7--|
G#|--7--7--x--7--7--7/10------|--5--5--x--5--5--5--x--5--|
C#|---------------------------|--------------------------|
   
D#|-----------------------------||
A#|-----------------------------||
F#|--7--7--x--7--7--------------||
C#|--7--7--x--7--7-----------5--||
G#|--5--5--x--5--5--5--7--7-----||
C#|-----------------------------||


************************************

| /   Slide
| x   Dead Note
| b   Bend

************************************
Добавлено: 11.12.2017
Другие материалы по этой песне:
  • Аккорды и текст

Страница создана 11.12.2017
http://primanota.ru/adelitas-way/getaway-chords.htm
Привет, Гость.
Предлагаем пройти революционный курс по гитаре.
Подарок от PrimaNota.Ru, забирай!