PrimaNota.ru - самый крупный в мире бесплатный архив песенных текстов, аккордов, табулатур и нот


Adelitas Way - I Know It All - таба, видео

Регистрация Запомнить меня
Войти через:  Facebook Google Twitter Vk Yandex Mail.ru

Adelitas Way - I Know It All - таба, видео

Печатать
Просмотров: 126
solo intro

E||--------------------------|------------------------------|
B||--------------------------|-------------6----------------|
G||-------------7----5-------|------------------7--5--5h7---|
D||--3g5--7--8----------7----|--3g5--7--8-------------------|
A||--------------------------|------------------------------|
E||--------------------------|------------------------------|


verse 1

-----------------------------------|
-----------------------------------|
-----------------------------------|
--7--7-----7--7-----7--7-----5--5--|
--7--7-----5--5-----7--7-----5--5--|
--5--5--------------5--5-----3--3--|


    chours
----------------------------------------------||
----------------------------------------------||
-------------------7--7--7--3--3--3--5--5--5--||
--5------5---5--5--7--7--7--3--3--3--5--5--5--||
--5------5---5--5--5--5--5--1--1--1--3--3--3--||
--3------3---3--3-----------------------------||

Tablature Legend
----------------
g - grace note with slide
h - hammer on
p - pull off
Добавлено: 30.05.2016
Другие материалы по этой песне:
  • Аккорды и текст

Страница создана 30.05.2016
http://primanota.ru/adelitas-way/i-know-it-all-chords.htm
Привет, Гость.
Предлагаем пройти революционный курс по гитаре.
Подарок от PrimaNota.Ru, забирай!