PrimaNota.ru - самый крупный в мире бесплатный архив песенных текстов, аккордов, табулатур и нот


Adelitas Way - Bad Reputation - таба, видео

Регистрация Запомнить меня
Войти через:  Facebook Google Twitter Vk Yandex Mail.ru

Adelitas Way - Bad Reputation - таба, видео

Печатать
Просмотров: 150
Новый альбом группы 'Черный Кузнец' по культовому сериалу 'Сверхъестественное'!
[Intro]

     PM PM   PM PM PM PM PM PM    PM PM   PM PM PM PM PM PM     
e|----------------------------|----------------------------|
B|----------------------------|----------------------------|
G|----------------------------|----------------------------|
D|----------------------------|----------------------------|
A|--0--0----0--0--0--0--0--0--|--0--0----0--0--0--0--0--0--|
D|--0--0----0--0--0--0--0--0--|--0--0----0--0--0--0--0--0--|
                                      
e|--------------------------|-----------|
B|--------------------------|-----------|
G|--------------------------|-----------|
D|--3--5--0--6--5--0--3--5--|--5--------|
A|--3--5--0--6--5--0--3--5--|--5--------|
D|--3--5--0--6--5--0--3--5--|--5--------|


[Chours]  

e|-----------------------------|-------------------------|
B|--------3--------------------|--------------------3----|
G|--------2--------3--3--3--3--|--------------------2----|
D|--0--0--0--------3--3--3--3--|--5--5--5--5--0--0--0----|
A|--0--0--0--------1--1--1--1--|--5--5--5--5--0--0--0----|
D|--0--0--0--------------------|--5--5--5--5--0--0--0----|
  
e|--------------------------|--------------------------|
B|--------------------------|--------------------------|
G|-----3--3--3--3-----------|--------------------------|
D|-----3--3--3--3--5--5--5--|--5--3--3--3--3--3--3--3--|
A|-----1--1--1--1--5--5--5--|--5--3--3--3--3--3--3--3--|
D|-----------------5--5--5--|--5--3--3--3--3--3--3--3--|
    
e|--------------------------|-----|-----------------------|
B|--------------------------|-----|-----------------------|
G|--------------------------|-----|-----------------------|
D|--3--7--7--7--7--7--7--7--|--7--|--0----0----8--8--8----|
A|--3--7--7--7--7--7--7--7--|--7--|--0----0----8--8--8----|
D|--3--7--7--7--7--7--7--7--|--7--|--0----0----8--8--8----|
        
e|-------------------------|
B|-------------------------|
G|-------------------------|
D|--5--5--5----3--3--3--3--|
A|--5--5--5----3--3--3--3--|
D|--5--5--5----3--3--3--3--|


[Guitar 2] [Chours Effect]                                
e|--------------------|---------------------|
B|--------------------|---------------------|
G|--------------------|---------------------|
D|--7--------8--------|--9--------10--------|
A|--------------------|---------------------|
D|--------------------|---------------------|


[Instrumental]

     PM PM   PM PM PM PM PM PM    PM PM   PM PM PM PM PM PM     
e|----------------------------|----------------------------|
B|----------------------------|----------------------------|
G|----------------------------|----------------------------|
D|----------------------------|----------------------------|
A|--0--0----0--0--0--0--0--0--|--0--0----0--0--0--0--0--0--|
D|--0--0----0--0--0--0--0--0--|--0--0----0--0--0--0--0--0--|

                                      
e|--------------------------|-----------|
B|--------------------------|-----------|
G|--------------------------|-----------|
D|--3--5--0--6--5--0--3--5--|--5--------|
A|--3--5--0--6--5--0--3--5--|--5--------|
D|--3--5--0--6--5--0--3--5--|--5--------|


[Chours]

e|-----------------------------|-------------------------|
B|--------3--------------------|--------------------3----|
G|--------2--------3--3--3--3--|--------------------2----|
D|--0--0--0--------3--3--3--3--|--5--5--5--5--0--0--0----|
A|--0--0--0--------1--1--1--1--|--5--5--5--5--0--0--0----|
D|--0--0--0--------------------|--5--5--5--5--0--0--0----|
  
e|--------------------------|--------------------------|
B|--------------------------|--------------------------|
G|-----3--3--3--3-----------|--------------------------|
D|-----3--3--3--3--5--5--5--|--5--3--3--3--3--3--3--3--|
A|-----1--1--1--1--5--5--5--|--5--3--3--3--3--3--3--3--|
D|-----------------5--5--5--|--5--3--3--3--3--3--3--3--|
    
e|--------------------------|-----|-----------------------|
B|--------------------------|-----|-----------------------|
G|--------------------------|-----|-----------------------|
D|--3--7--7--7--7--7--7--7--|--7--|--0----0----8--8--8----|
A|--3--7--7--7--7--7--7--7--|--7--|--0----0----8--8--8----|
D|--3--7--7--7--7--7--7--7--|--7--|--0----0----8--8--8----|
        
e|-------------------------|
B|-------------------------|
G|-------------------------|
D|--5--5--5----3--3--3--3--|
A|--5--5--5----3--3--3--3--|
D|--5--5--5----3--3--3--3--|


[Guitar 2] [Chours Effect]                                
e|--------------------|---------------------|
B|--------------------|---------------------|
G|--------------------|---------------------|
D|--7--------8--------|--9--------10--------|
A|--------------------|---------------------|
D|--------------------|---------------------|


[Breakdown] 

e|-----------------------------------|--------------------------------|
B|-----------------------------------|--------------------------------|
G|--------------14b--12--------------|------14b------------14b--------|
D|--12--12--12-----------12--15--12--|--12---------12--12---------12--|
A|-----------------------------------|--------------------------------|
D|-----------------------------------|--------------------------------|
         
e|----------------------------|
B|----------------------------|
G|------14b-------------------|
D|--12---------15~--------12--|
A|----------------------------|
D|----------------------------|


[Chours]

e|-----------------------------|-------------------------|
B|--------3--------------------|--------------------3----|
G|--------2--------3--3--3--3--|--------------------2----|
D|--0--0--0--------3--3--3--3--|--5--5--5--5--0--0--0----|
A|--0--0--0--------1--1--1--1--|--5--5--5--5--0--0--0----|
D|--0--0--0--------------------|--5--5--5--5--0--0--0----|
  
e|--------------------------|--------------------------|
B|--------------------------|--------------------------|
G|-----3--3--3--3-----------|--------------------------|
D|-----3--3--3--3--5--5--5--|--5--3--3--3--3--3--3--3--|
A|-----1--1--1--1--5--5--5--|--5--3--3--3--3--3--3--3--|
D|-----------------5--5--5--|--5--3--3--3--3--3--3--3--|
    
e|--------------------------|-----|-----------------------|
B|--------------------------|-----|-----------------------|
G|--------------------------|-----|-----------------------|
D|--3--7--7--7--7--7--7--7--|--7--|--0----0----8--8--8----|
A|--3--7--7--7--7--7--7--7--|--7--|--0----0----8--8--8----|
D|--3--7--7--7--7--7--7--7--|--7--|--0----0----8--8--8----|
        
e|-------------------------|
B|-------------------------|
G|-------------------------|
D|--5--5--5----3--3--3--3--|
A|--5--5--5----3--3--3--3--|
D|--5--5--5----3--3--3--3--|


[Guitar 2] [Chours Effect]                                
e|--------------------|---------------------|
B|--------------------|---------------------|
G|--------------------|---------------------|
D|--7--------8--------|--9--------10--------|
A|--------------------|---------------------|
D|--------------------|---------------------|



************************************
| b   Bend
| ~   Vibrato
| PM  Palm mute

************************************
Добавлено: 11.12.2017
Другие материалы по этой песне:
  • Аккорды и текст

Страница создана 11.12.2017
http://primanota.ru/adelitas-way/bad-reputation-chords.htm
Привет, Гость.
Предлагаем пройти революционный курс по гитаре.
Подарок от PrimaNota.Ru, забирай!