» 
 » 
This War Of Mine - We Keep Going



Misc Computer Games - This War Of Mine - We Keep Going - табы

Чайковский в рок-аранжировке! Очень необычно, послушай!
                                 Song from the game "This War Of Mine"
                                    Piotr Musial - We Keep Going


[INTRO 0:03]
E|----------------------------------------------------------|
B|--------2---3--------3---2--------2---3------3---2---0----|
G|----------------------------------------------------------|
D|------2------------2------------2----------2--------------|
A|----2------------2------------2---------------------------|
E|----------------------------------------------------------|

[0:30]
E|------------------------------------|
B|------------------------------------|
G|-----------5p4h5----------4h5p4-----|
D|--------0--------------0------------|
A|------3--------------0--------------|
E|----3--------------0----------------|


[0:41] Starting Quietly 
E|---------------------------------------------------------|
B|---------------------------------------------------------|
G|---------------------------------------------------------|
D|----4---4---4/6-6---6---7--6--4---4---4/6-6---6---7---9--|
A|------2---2--------------------2---2---------------------|
E|------------------7---7---------------------7---7---7----|


[0:53] Starting Loud Part
E|------------------------------------------------------------------------------------------------------------
B|------------------------------------------------------------------------------------------------------------
G|------------------------------------------------------------------------------------------------------------
D|--------4---4/6-6-----7---7--6-------4---4/6-6-----6---7---9----------4---4/6-6-----6---7--6---4---4---4/6--
A|------2---2-----------------------2----2----------------------------2---2------------------------2---2------
E|---0--------------0-7---7------0---------------0-7---7---7--------0-------------0-7---7------0--------------

---------------------|
---------------------|
---------------------|
--------6---7-----9--|
-----------------9---|
----0-7---7-----7----|


 [1:33]   [1:36]   [1:42]
E|--------------------------|
B|--------------------------|
G|--------------------------|
D|---9------11--------9-----|
A---9-----11--------11------|
E|-7-----9---------9--------|


[1:53]                   [2:04]
E|--------------------------------------|
B|--------------------------------------|
G|--------1--1-----------------1--1-----|
D|-------------t4h2-----------------t4--|
A|--2---4----------------2---4----------|
E|--------------------------------------|


[2:20] That positive part :)
E|----0----0-2/4-5-------0----0-2/4-5---4--2----0----0-2/4-5-------0----0-2/4-5----2----0-----|
B|---0---0--------------0---0------------------0---0--------------0---0-----------------------|
G|--2------------------2----------------------2------------------2----------------------------|
D|-2------------------2----------------------2------------------2-----------------------------|
A|--------------------------------------------------------------------------------------------|
E|--------------------------------------------------------------------------------------------|

Thats All, i think this is awesome song, and it easy to play. Enjoy.


********************

h-hammer on
p-pull off
t-taping
/\-slide

********************
   

Misc Computer Games - This War Of Mine - We Keep Going - ноты

(включить)
Другие материалы по этой песне:
  • Аккорды, текст

https://primanota.ru/misc-computer-games/this-war-of-mine-we-keep-going-chords.htm

Привет, гитарист!

Тебе подарок от сайта PrimaNota.ru

Забрать подарок
ВАМ ПОДАРКИ ОТ ПРОЕКТА
"ГИТАРНАЯ РЕВОЛЮЦИЯ"