» 
 » 
Title Theme - Paper Mario Sticker Star



Misc Computer Games - Title Theme - Paper Mario Sticker Star - табы

Чайковский в рок-аранжировке! Очень необычно, послушай!
Although I know many people didn't like the game, I hope they still appreciated Sticker Star's music, like
what the game starts you off with here.


[Intro]

e|-----------------------------------|
B|-----------------------------------|
G|-------0---0-1-0-1-2--------0-2----|
D|-3-2-3---4---------------3---------|
A|-----------------------------------|
E|-----------------------------------|

[Main Song]

e|----1-----------------------------------------------------1------------1---|
B|-3---1------3-------------------1-3--4-3-1---3---1------3--1------3-4----4-|
G|----------3---2-----0-2-3-0-3--3-----------3-------------------3-----------|
D|---------------------------3-----------------------------------------------|
A|---------------------------------------------------------------------------|
E|---------------------------------------------------------------------------|


e|---------------1------------------------------------------1-----------1------------1---|
B|-3-3-1---4---3---1------3-------------------1-3--4-3-1---3-3-1------3--1------3-4----4-|
G|-------3--2-----------3---2-----0-2-3-0-3--3-----------3-------------------3-----------|
D|---------------------------------------3-----------------------------------------------|
A|---------------------------------------------------------------------------------------|
E|---------------------------------------------------------------------------------------|


e|---------------------------------------------------------------------------|
B|-3-3-1---4---------1/2--3-4-3-4-3---4-3-1-1---------------1/2--3-4-3-4-3---|
G|-------3--2-3----3--------------------------3-3-2-3----3-------------------|
D|---------------------------------------------------------------------------|
A|---------------------------------------------------------------------------|
E|---------------------------------------------------------------------------|

e|---2---5-5\3-3-2-3---------------------------------------------0-1---1-----|
B|--------------------3-1-0---1/3\1/3\1-------0--1/3\1/3\1---1-3-----------4-|
G|----------------------------------------0-2--------------------------------|
D|---------------------------------------------------------------------------|
A|---------------------------------------------------------------------------|
E|---------------------------------------------------------------------------|


e|-------------------1------------------------------------------1-----------1------------1---|
B|---4---3--3---1--3---1------3-------------------1-3--4-3-1---3-3-1------3--1------3-4---4--|
G|--------------------------3---2-----0-2-3-0-3--3-----------3-------------------3-----------|
D|-------------------------------------------3-----------------------------------------------|
A|-------------------------------------------------------------------------------------------|
E|-------------------------------------------------------------------------------------------|


e|------------------------------------------1---3--1------1---3--1------------------------|
B|-3-3-1---4---1---------------------1-2-3----4---------3---4-----------------------------|
G|-------3---2----------3----------3------------------------------------------------------|
D|----------------------------------------------------------------------------------------|
A|----------------------------------------------------------------------------------------|
E|----------------------------------------------------------------------------------------|

Then it all repeats, aside from the Intro. :)

| /   Slide up
| \   Slide down

   

Misc Computer Games - Title Theme - Paper Mario Sticker Star - ноты

(включить)
Другие материалы по этой песне:
  • Аккорды, текст

https://primanota.ru/misc-computer-games/title-theme-paper-mario-sticker-star-chords.htm

Привет, гитарист!

Тебе подарок от сайта PrimaNota.ru

Забрать подарок
ВАМ ПОДАРКИ ОТ ПРОЕКТА
"ГИТАРНАЯ РЕВОЛЮЦИЯ"