» 
 » 
Gta San Andreas Theme



Misc Computer Games - Gta San Andreas Theme - бас-таба

Бесплатный вокальный онлайн-квест VOX7
Tabbed by: 6METAL6BASSIST6
E-mail: petergriffinav@gmail.com

Tuning: EADG

Repeated through the whole song.

G|----------------------------------------------------------------|
D|5-----------------------------------------------------------6---|
A|----6-----------------------------------------------------------|
E|--------1---3-----------------3-3-------------------6---4-------|

Ends with

G|--------------------------------|
D|5-------------------------------|
A|--------------------------------|
E|------------3-------------------|   

Misc Computer Games - Gta San Andreas Theme - ноты

(включить)
Другие материалы по этой песне:

https://primanota.ru/misc-computer-games/gta-san-andreas-theme-chords.htm

Привет, гитарист!

Тебе подарок от сайта PrimaNota.ru

Забрать подарок
ВАМ ПОДАРКИ ОТ ПРОЕКТА
"ГИТАРНАЯ РЕВОЛЮЦИЯ"