» 
 » 
The Witcher 3 - Silver For Monsters



Misc Computer Games - The Witcher 3 - Silver For Monsters - табы

Чайковский в рок-аранжировке! Очень необычно, послушай!
Strum the few chords in the beginning as done in the song


e|-----------------------------------------------3--3-3--2--2------------------------|
B|--4---4-4-3--3----3--3-3--3----4---4-4-3--3----3--3-3--3--3------------------------|
G|--2---2-2-2--2----3--3-2--2----2---2-2-2--2----2--2-2--2--2------------------------|
D|--0---0-0-0--0----0--0-0--0----0---0-0-0--0----0--0-0--0--0------------------------|
A|--0---0-0-0--0----0--0-0--0----0---0-0-0--0----0--0-0--0--0------------------------|
E|-----------------------------------------------------------------------------------|


[Gipsywoman solo]                       
                               
e|--------2----------------2--------------------------|
B|----3-4----3-4-3-2-2--3-4--3------------------------|
G|----------------------------------------------------|
D|----------------------------------------------------| (repeat as needed)
A|----------------------------------------------------|
E|----------------------------------------------------|
   

Misc Computer Games - The Witcher 3 - Silver For Monsters - ноты

(включить)
Другие материалы по этой песне:
  • Аккорды, текст

https://primanota.ru/misc-computer-games/witcher-3-silver-for-monsters-chords.htm

Привет, гитарист!

Тебе подарок от сайта PrimaNota.ru

Забрать подарок
ВАМ ПОДАРКИ ОТ ПРОЕКТА
"ГИТАРНАЯ РЕВОЛЮЦИЯ"