» 
 » 
Tuned To Live



Misc Computer Games - Tuned To Live - табы

Чайковский в рок-аранжировке! Очень необычно, послушай!
Song: Tuned to live
Artist: Grzegorz Mazur
Album: This War of Mine (Official Soundtrack)
Tabbed by: kmaskmaster

The song "Tuned to Live" from the game "This War of Mine". Couldn't find the tab written out elsewhere,
so here it is. A simple but great song to play!

Tuning: Standard

e|-------------------------------------------------------------------------------0-------------0-----|
B|----------------------------------------------------------------0-----------0----------3--------3--|
G|----------2--------0h2---4---5---4---0---2------2---2-2------2-----2-----0-------------2-----------|
D|-0-----0--------------------------------------------------3-----------2----------------0-----------|
A|---------------------------------------------------------------------------------------------------|
E|---------------------------------------------------------------------------------------------------|

e|-------------------------------------------------------------------------------0-------------0-----|
B|----------------------------------------------------------------0-----------0----------3--------3--|
G|----------2--------0h2---4---5---4---0---2------2---2-2------2-----2-----0-------------2-----------|
D|-0-----0--------------------------------------------------3-----------2----------------0-----------|
A|---------------------------------------------------------------------------------------------------|
E|---------------------------------------------------------------------------------------------------|

e|-------------------------------------------------------------------------------0-------------0-----|
B|----------------------------------------------------------------0-----------0----------3--------3--|
G|----------2--------0h2---4---5---4---0---2------2---2-2------2-----2-----0-------------2-----------|
D|-0-----0--------------------------------------------------3-----------2----------------0-----------|
A|---------------------------------------------------------------------------------------------------|
E|---------------------------------------------------------------------------------------------------|

e|-------------------------------------------------------------------------------0-------------0-----|
B|----------------------------------------------------------------0-----------0----------3--------3--|
G|----------2--------0h2---4---5---4---0---2------2---2-2------2-----2-----0-------------2-----------|
D|-0-----0--------------------------------------------------3-----------2----------------0-----------|
A|---------------------------------------------------------------------------------------------------|
E|---------------------------------------------------------------------------------------------------|

e|-----------3--0----------|------------3--0---------|------------5--0---------|------------5--0-----|
B|-----------------1--0----|------------------1--0---|-----------------3--0----|-----------------3--0|
G|-2------2----------------|-2------2----------------|-4------4----------------|-4------4------------|
D|-3------3----------------|-3------3----------------|-5------5----------------|-5------5------------|
A|-------------------------|-------------------------|-------------------------|---------------------|
E|-------------------------|-------------------------|-------------------------|---------------------|

e|-----------3--0----------|------------3--0---------|------------5--0---------|------------5--0-----|
B|-----------------1--0----|------------------1--0---|-----------------3--0----|-----------------3--0|
G|-2------2----------------|-2------2----------------|-4------4----------------|-4------4------------|
D|-3------3----------------|-3------3----------------|-5------5----------------|-5------5------------|
A|-------------------------|-------------------------|-------------------------|---------------------|
E|-------------------------|-------------------------|-------------------------|---------------------|

e|-----------3--0----------|------------3--0---------------------------------------------------------|
B|-----------------1--0----|------------------1--0---------------------------------------------------|
G|-2------2----------------|--2------2---------------------------------------------------------------|
D|-3------3----------------|--3------3---------------------------------------------------------------|
A|-------------------------|-------------------------------------------------------------------------|
E|-------------------------|-------------------------------------------------------------------------|

e|-------------------------------------------------------------------------------0-------------0-----|
B|----------------------------------------------------------------0-----------0----------3--------3--|
G|----------2--------0h2---4---5---4---0---2------2---2-2------2-----2-----0-------------2-----------|
D|-0-----0--------------------------------------------------3-----------2----------------0-----------|
A|---------------------------------------------------------------------------------------------------|
E|---------------------------------------------------------------------------------------------------|


************************************

| /   slide up
| \   slide down
| h   hammer-on
| p   pull-off
| ~   vibrato
| +   harmonic
| x   Mute note
| b   Bend
| pb  Pre-bend
| br  Bend release
| pbr Pre-bend release
| brb Bend release bend

************************************   

Misc Computer Games - Tuned To Live - ноты

(включить)
Другие материалы по этой песне:
  • Аккорды, текст

https://primanota.ru/misc-computer-games/tuned-to-live-chords.htm

Привет, гитарист!

Тебе подарок от сайта PrimaNota.ru

Забрать подарок
ВАМ ПОДАРКИ ОТ ПРОЕКТА
"ГИТАРНАЯ РЕВОЛЮЦИЯ"