Войти:  Facebook Google Twitter Vk Yandex Mail.ru
PrimaNota.ru - самый крупный в мире бесплатный архив песенных текстов, аккордов, табулатур и нот


Misc Computer Games - Final Fantasy Xv Somnus Main Menu Theme - таба, видео

Печатать
Просмотров: 163
Лучшая metal-группа Петербурга

Final Fantasy Xv Somnus Main Menu Theme

  • аккорды и текст

Final Fantasy XV: Somnus
Tabbed by SynysterSpencer


Here's a youtube link to help you learn the timing for each section:
https://www.youtube.com/watch?v=b7irn-e7llQ&nohtml5=False


[Intro]

(0:00 - 0:19)
e|-----------------------------3--3------------------------------------------|
B|--------------------4-3-4--6----4------------------------------------------|
G|---8---7---------5~~~~5~~~~~~~~~5----------5-------------------------------|
D|----------8--5---5~~~~5~~~~~~~~~5----------5-------------------------------|
A|---6-------------3~~~~3~~~~~~~~~3---------(3)------------------------------|
E|---6---6------------------------------6~---------6-------------------------|


[Verse A ]

(0:20 - 0:43)
e|------------------13------------------13------/15~--13~------13~--15~------|
B|-13~---16-15~--16----13~---16-15~--16----16~------------16~------------13~-|
G|---------------------------------------------------------------------------|
D|---------------------------------------------------------------------------|
A|---------------------------------------------------------------------------|
E|---------------------------------------------------------------------------|

(0:44 - 0:53)
e|--15--13---------13--------------------13----------------------------------|
B|----------15--16----15--16--15--13--15----16--15--13~----------------------|
G|---------------------------------------------------------------------------|
D|---------------------------------------------------------------------------|
A|---------------------------------------------------------------------------|
E|---------------------------------------------------------------------------|


[Verse B] 

(0:54 - 1:15)
e|------------------13------------------13------15~--13~------13~--15~--20~--|
B|--13~--16-15~--16----13~--16--15~--16----16~------------16~----------------|
G|---------------------------------------------------------------------------|
D|---------------------------------------------------------------------------|
A|---------------------------------------------------------------------------|
E|---------------------------------------------------------------------------|


[Bridge]

 (1:16 - 1:26)
e|----------------13---------------------13-------15~-16~-15~----------------|
B|--16~--13-15-16-----16-15h16p15--13-15----16-15----------------------------|
G|---------------------------------------------------------------------------|
D|---------------------------------------------------------------------------|
A|---------------------------------------------------------------------------|
E|---------------------------------------------------------------------------|

(1:26 - 1:28)
e|--20-----------------------------------------------------------------------|
B|-----18--------------------------------------------------------------------|
G|--------20-19-17-----------------------------------------------------------|
D|---------------------------------------------------------------------------|
A|---------------------------------------------------------------------------|
E|---------------------------------------------------------------------------|

(1:29 - 1:42)
e|------------------------------------13-15~---------------------------------|
B|------------------------------15-16----------------------------------------|
G|-------7-7/10-8-7-5------12~-----------------12~---------------------------|
D|----5---------------------------------------------10~----------------------|
A|-3~------------------------------------------------------------------------|
E|---------------------------------------------------------------------------|

(1:43 - 1:57)
e|---------13-15---------13-15-20~---13----13---------------------13---------|
B|15--16~--------16~--16----------------16----16--15--16-15-13-15---16-15-13~|
G|---------------------------------------------------------------------------|
D|---------------------------------------------------------------------------|
A|---------------------------------------------------------------------------|
E|---------------------------------------------------------------------------|

(1:58 - 2:12)
e|---------13-15---------13-15-20~--13----13------------15----15-13----------|
B|15--16~--------16~--16---------------16----16~--15-16----13-------16-15-13~|
G|---------------------------------------------------------------------------|
D|---------------------------------------------------------------------------|
A|---------------------------------------------------------------------------|
E|---------------------------------------------------------------------------|

(2:13 - 2:24)
e|---------------------------------------------------------------------------|
B|---------------------------------------------------------------------------|
G|---8---7-------------------------------------------------------------------|
D|----------8--5---5~~~~-----------------------------------------------------|
A|---6-------------3~~~~-----------------------------------------------------|
E|---6---6---------3~~~~-----------------------------------------------------|


***********************************
| /   Slide up
| h   Hummer-on
| p   Pull-off
| ~   Vibrato
***********************************

Добавлено: 23.05.2018
Другие материалы по этой песне:
  • Аккорды и текст

Страница создана 23.05.2018
https://primanota.ru/misc-computer-games/final-fantasy-xv-somnus-main-menu-theme-chords.htm

Привет, гитарист!

Тебе подарок от сайта PrimaNota.ru

Забрать подарок
ВАМ ПОДАРКИ ОТ ПРОЕКТА
"ГИТАРНАЯ РЕВОЛЮЦИЯ"