PrimaNota.ru - самый крупный в мире бесплатный архив песенных текстов, аккордов, табулатур и нот


Misc Computer Games - Five Nights At Freddys - Freddy Fazbears Theme - таба, видео

Регистрация Запомнить меня
Войти через:  Facebook Google Twitter Vk Yandex Mail.ru

Misc Computer Games - Five Nights At Freddys - Freddy Fazbears Theme - таба, видео

Печатать
Просмотров: 94
Лучшая metal-группа Петербурга
This is the jingle that happens when the power goes out and
Freddy shows up at the left door. Otherwise known as the Freddy Fazbear's theme.
This is transcribed to play it in a single note form.


e|-------12-----------------------------------------------------------|
B|---15------15-12--12--12-----12-13-12--13----15-12------------------|
G|--------------------------14--------------14--------12-----14-------|
D|--------------------------------------------------------14----12----|
A|--------------------------------------------------------------------|
E|--------------------------------------------------------------------|

e|------------12------------------------------------------------14-----|
B|---------------15-13-12----12-13-12-------------12--15-----14--------|
G|---14---14--------------14------------------------------15-----------|
D|-------------------------------------16--16-16-----------------------|
A|---------------------------------------------------------------------|
E|---------------------------------------------------------------------|

e|---12h14p12------12---------------------------12----------------------------------|
B|-------------16--------------12--12h13p12--------15---------------13-12-----------|
G|---------------------12--14----------------12--------12h14p12-----------14----12--|
D|---------------------------------------------------------------12-----------------|
A|----------------------------------------------------------------------------------|
E|----------------------------------------------------------------------------------|


************************************

| h   Hammer-on
| p   Pull-off

************************************
Добавлено: 23.05.2018
Другие материалы по этой песне:
  • Аккорды и текст

Страница создана 23.05.2018
https://primanota.ru/misc-computer-games/five-nights-at-freddys-freddy-fazbears-theme-chords.htm
Привет, Гость.
Предлагаем пройти революционный курс по гитаре.
Подарок от PrimaNota.Ru, забирай!