Войти:  Facebook Google Twitter Vk Yandex Mail.ru
PrimaNota.ru - самый крупный в мире бесплатный архив песенных текстов, аккордов, табулатур и нот


Misc Computer Games - Frogger - Theme Song - таба, видео

Печатать
Просмотров: 77
Лучшая metal-группа Петербурга

Frogger - Theme Song


E  E  E  E  E E  E E    E  E  E  E  E E  E E
e|-------14-15-17---14---|-------14--------------|
B|-15-17-----------------|-15-17----17-15---15---|
G|-----------------------|-----------------------|
D|-----------------------|-----------------------|
A|-----------------------|-----------------------|
E|-----------------------|-----------------------|

 |  E  E  E  E  E E  E E    E  E  E  E  E E  E E
e|-----------------------|-----------------------|
B|-----------------------|-----------------------|
G|--7-----7-----7----7---|--7-----7-----7----7---|
D|-----7-----7----7----7-|-----7-----7----7----7-|
A|-----------------------|-----------------------|
E|-----------------------|-----------------------|

    E  E  E  E  E E  E E    E  E  E  E  E  E Q
e|-------14-15-17---14---|-17-15-14-------------|
B|-15-17-----------------|----------17-15-15----|
G|-----------------------|----------------------|
D|-----------------------|----------------------|
A|-----------------------|----------------------|
E|-----------------------|----------------------|

 |  E  E  E  E  E E  E E    E  E  E  E  E  E Q
e|-----------------------|----------------------|
B|-----------------------|----------------------|
G|--7-----7-----7----7---|--9-----9-----7-------|
D|-----7-----7----7----7-|-----7-----7----------|
A|-----------------------|----------------------|
E|-----------------------|----------------------|
Добавлено: 23.05.2018
Другие материалы по этой песне:

Страница создана 23.05.2018
https://primanota.ru/misc-computer-games/frogger-theme-song-chords.htm

Привет, гитарист!

Тебе подарок от сайта PrimaNota.ru

Забрать подарок
ВАМ ПОДАРКИ ОТ ПРОЕКТА
"ГИТАРНАЯ РЕВОЛЮЦИЯ"