Войти:  Facebook Google Twitter Vk Yandex Mail.ru
PrimaNota.ru - самый крупный в мире бесплатный архив песенных текстов, аккордов, табулатур и нот


Filter - Its Just You - табы

Печатать
ViraMusic 2019 в Петербурге 4 апреля 2019! Скидка 10%!

Its Just You

  • аккорды, текст

INTRO

C|--0----0----0----0--------------0--------|
B|--1—---1----1----1--------------1--------|
G|--0----2----2----2--------------2--------|
D|--2----3----0----3---0-0h2p1p0--3--------|
A|--3----0----0----3--------------0--------|
D|-----------------------------------------|

VERSE

C|------------0-----------0----------------|
B|------------1-----------1----------------|
G|------------2-----------2----------------|
D|-0-0h2p1p0--3--0-2p1p0--3----------------|
A|------------0-----------0----------------|
D|-----------------------------------------|

C|-----------0----0---0--0-----------------|
B|-----------0----0---1--1-----------------|
G|-----------0----0---2--2-----------------|
D|---------7-7--5-5-0-0--3-----------------|
A|---------7-7--5-5-0-0--3-----------------|
D|-0-2-3-5-7-7--5-5-0-0--0-----------------|

CHORUS
 
C|--0----0----0----0------------0----------|
B|--1—---1----1----1------------1----------|
G|--0----2----2----2------------2----------|
D|--2----3----0----3---0-2p1p0--3----------|
A|--3----0----0----3------------0----------|
D|------------0----0-----------------------|



| /  slide up
| \  slide down
| h  hammer-on
| p  pull-off
| ~  vibrato
| +  harmonic
| x  Mute note
   
Другие материалы по этой песне:
  • Аккорды, текст

https://primanota.ru/filter/its-just-you-chords.htm

Привет, гитарист!

Тебе подарок от сайта PrimaNota.ru

Забрать подарок
ВАМ ПОДАРКИ ОТ ПРОЕКТА
"ГИТАРНАЯ РЕВОЛЮЦИЯ"