Войти:  Facebook Google Twitter Vk Yandex Mail.ru
PrimaNota.ru - самый крупный в мире бесплатный архив песенных текстов, аккордов, табулатур и нот


Filter - Surprise - табы

Печатать
ViraMusic 2019 в Петербурге 4 апреля 2019! Скидка 10%!

Surprise

  • аккорды, текст

-------------------------------------------------------------------------------
                             SURPRISE - Filter
-------------------------------------------------------------------------------
Tabbed by: Josh M.
E-mail: green_bean29@yahoo.ca

Tuning: CGCGCE

Intro/Verse

The main parts of the song are tabbed excluding the solo. Listen to the song for the
strumming pattern. Its fairly simple. 

e|---------------------------------------------------------------------------|
B|-0-0-0-0--0-0-0--0-0-0-0--0-0-0--0-0-0-0--0-0------------------------------|
G|-0-0-0-0--0-0-0--0-0-0-0--0-0-0--0-0-0-0--0-0------------------------------|
D|-5-5-5-5--4-4-4--5-5-5-5--4-4-4--5-5-5-5--4-4------------------------------|
A|-5-5-5-5--5-5-5--5-5-5-5--5-5-5--5-5-5-5--5-5------------------------------|
E|---------------------------------------------------------------------------|

Chorus

e|---------------------------------------------------------------------------|
B|---------------------------------------------------------------------------|
G|-0-0-0-0--0-0-0-0--7-7-7-7-------------------------------------------------|
D|-4-4-4-4--7-7-7-7--5-5-5-5-------------------------------------------------|
A|-2-2-2-2--5-5-5-5--5-5-5-5-------------------------------------------------|
E|-0-0-0-0--0-0-0-0--5-5-5-5-------------------------------------------------|


When he sings the lyrics "shes the world to me, shes the world in me" you can strum the low C open. That's
when the bass comes in...the live versions Ive seen on youtube show the guitarist playing the chords 
somewhere around the 10th or 11th fret and its probably in dropped D tuning but I stumbled on the above
by fluke :p hopefully someone will take it from here and fill the rest...any comments or corrections
welcomed   
Другие композиции этого автора:
Другие материалы по этой песне:
  • Аккорды, текст

https://primanota.ru/filter/surprise-chords.htm

Привет, гитарист!

Тебе подарок от сайта PrimaNota.ru

Забрать подарок
ВАМ ПОДАРКИ ОТ ПРОЕКТА
"ГИТАРНАЯ РЕВОЛЮЦИЯ"