Войти:  Facebook Google Twitter Vk Yandex Mail.ru
PrimaNota.ru - самый крупный в мире бесплатный архив песенных текстов, аккордов, табулатур и нот


Filter - Soldiers Of Misfortune - текст песни, табы

Печатать
ViraMusic 2019 в Петербурге 4 апреля 2019! Скидка 10%!

Soldiers Of Misfortune

  • аккорды, текст

Авторы музыки: Richard Patrick

-------------------------------------------------------------------------------
                             SOLDIERS OF MISFORTUNE - Filter
-------------------------------------------------------------------------------
Tabbed by: Mono
Email: bowdowntothemono@hotmail.co.uk

Tuning: Standard (EADGBe)

Pretty easy, though the rhythm is a bit difficult. I can't really tab it. Listen to the song.

Intro - Odd noises and I think some sort of G chord played with delay.

Verse (Rhythm):
(Play these chords with the rhythm)
e|---|----|---|---|---|---|---|---|
B|---|----|---|---|---|---|---|---|
G|---|----|---|---|---|---|---|---| x2
D|-7-|-10-|-3-|-3-|-2-|-2-|-5-|-5-|
A|-7-|-10-|-3-|-3-|-2-|-2-|-5-|-5-|
E|-5-|-8--|-1-|-1-|-0-|-0-|-3-|-3-|

Verse (Lead):
(This comes in on the second repetition of the Verse rhythm part)
e|-------|-------|-------|----|----|----|-------|-------------|
B|-15h17-|-17/20-|-15-13-|-13-|-12-|-12-|-13-15-|-15-17-15-20-|
G|-------|-------|-------|----|----|----|-------|-------------|
D|-------|-------|-------|----|----|----|-------|-------------|
A|-------|-------|-------|----|----|----|-------|-------------|
E|-------|-------|-------|----|----|----|-------|-------------|

Chorus (Rhythm):
(Different, easier rhythm here)
e|----|---|---|---|
B|----|---|---|---|
G|----|---|---|---|
D|-12-|-9-|-7-|-5-|
A|-12-|-9-|-7-|-5-|
E|-10-|-7-|-5-|-3-|

Chorus (Lead):
(This part is probably wrong, but it sounds ok)
e|----|----|----|----|
B|-22-|-15-|-15-|----|
G|----|----|----|-12-|
D|----|----|----|----|
A|----|----|----|----|
E|----|----|----|----|

Post-Chorus (Rhythm only, Lead leaves last note of chorus ringing):
e|---|---|
B|---|---|
G|---|---|
D|-2-|-5-|
A|-2-|-5-|
E|-0-|-3-|

Verse
Chorus

Bridge (Mainly Rhythm, there are some lead parts, but I can't figure them out):
(Lead can improvise quietly on these chords)
e|---|---|---|----|
B|---|---|---|----|
G|---|---|---|----|
D|-7-|-9-|-5-|-12-|
A|-7-|-9-|-5-|-12-|
E|-5-|-7-|-3-|-10-|

Chorus x4

End on:
e|----|
B|----|
G|----|
D|-12-|
A|-12-|
E|-10-|

I have a feeling this song may be in Drop-D, but you should be able to work it out from this.

| /  slide up
| \  slide down
| h  hammer-on
| p  pull-off
| ~  vibrato
| +  harmonic
| x  Mute note
===============================================================================
   
https://primanota.ru/filter/soldiers-of-misfortune-chords.htm

Привет, гитарист!

Тебе подарок от сайта PrimaNota.ru

Забрать подарок
ВАМ ПОДАРКИ ОТ ПРОЕКТА
"ГИТАРНАЯ РЕВОЛЮЦИЯ"