Войти:  Facebook Google Twitter Vk Yandex Mail.ru
PrimaNota.ru - самый крупный в мире бесплатный архив песенных текстов, аккордов, табулатур и нот


Filter - Hey man nice short -





Date: Sun, 3 Dec 1995 13:38:16 -0500
From: Don Pezet 
Subject: f/filter/hey_man_nice_short.btab

Bass Tab by: Don Pezet (dpezet@ao.net)
Group: Filter
Song: Hey Man Nice Shot
Album: Short Bus
Written and arranged by: Richard Patrick

                        ~~~~~~~~~~~~~~~~~~~
                         Hey Man Nice Shot
                            By: Filter
                        ~~~~~~~~~~~~~~~~~~~

INTRO/VERSE (Bass w/effects amp; echo)
G|-----------------------------------------------------------------|
D|-o-------------------------------------------------------------o-|
A|-o-------------------------------------------------------------o-|
E|---0-0-0-0-0-0-0-0-3-3-3-3-3-3-3-5-5-5-5-5-5-5-5-5-6-6-5-5-3-3---|
                                                                      
CHORUS (Lots of distortion here)

G|-----------------------------------------------------------------|
D|-o---------------------------------------------------------------|
A|-o---------------------------------------------------------------|
E|---0--10--12--0--10--12--0--10--12--0--10--12--0--10--9--0--10--9|
                                                          
G|-----------------------------------------------------------------|
D|-----------------------------------------------------------------|
A|-----------------------------------------------------------------|
E|---0--10--9--0--10--9--0--5--7--0--5--7--0--5--7--0--5--7--0--5--|
                                                   
G|-----------------------------------|
D|---------------------------------o-|
A|---------------------------------o-|
E|---3--0--5--3--0--5--3--0--5--3----|

Tabbed by dpezet@ao.net
Access Orlando, Home of the really bored guy with way
to much time on his hands.


   
Другие композиции этого автора:
Другие материалы по этой песне:
  • Аккорды, текст

https://primanota.ru/filter/hey-man-nice-short-chords.htm

Привет, гитарист!

Тебе подарок от сайта PrimaNota.ru

Забрать подарок
ВАМ ПОДАРКИ ОТ ПРОЕКТА
"ГИТАРНАЯ РЕВОЛЮЦИЯ"