Войти:  Facebook Google Twitter Vk Yandex Mail.ru
PrimaNota.ru - самый крупный в мире бесплатный архив песенных текстов, аккордов, табулатур и нот


Filter - Burn It - табы

Печатать
ViraMusic 2019 в Петербурге 4 апреля 2019! Скидка 10%!

Burn It

  • аккорды, текст

Artist: Filter
Song: Burn It
Tuning: D A D G B e

[Intro]

e|------------------------------------------------|-------------------------------------------------|
B|------------------------------------------------|-------------------------------------------------|
G|------------------------------------------------|-------------------------------------------------|
D|------------------------------------------------|-------------------------------------------------| x2
A|------------------------------------------------|-------------------------------------3--5--5--5--|
D|-0--3-----0--5-----0--3-----0--5--0--3--0--5--0-|-0--3-----0--5-----0--3-----0--5--0--------------|


[Post-chorus]

e|------------------------------------------------|-------------------------------------------------|
B|------------------------------------------------|-------------------------------------------------|
G|------------------------------------------------|-------------------------------------------------|
D|-0--3-----0--5-----0--3-----0--5--0--3--0--5--0-|-0--3-----0--5-----0--3-----0--5--0--10-12-12-12-| x2
A|-0--3-----0--5-----0--3-----0--5--0--3--0--5--0-|-0--3-----0--5-----0--3-----0--5--0--10-12-12-12-|
D|-0--3-----0--5-----0--3-----0--5--0--3--0--5--0-|-0--3-----0--5-----0--3-----0--5--0--10-12-12-12-|


[Verse]

e|------------------------------------------------|-------------------------------------------------|
B|------------------------------------------------|-------------------------------------------------|
G|------------------------------------------------|-------------------------------------------------|
D|------------------------------------------------|-------------------------------------------------| x2
A|------------------------------------------------|-------------------------------------------------|
D|-0--0--0--0-----0--0--0--0--0-----0--8--8--8--8-|-3--3--3--3-----3--3--3--3--3-----3--5--5--5--5--|

e|------------------------------------------------|-------------------------------------------------|
B|------------------------------------------------|-------------------------------------------------|
G|------------------------------------------------|-------------------------------------------------|
D|------------------------------------------------|-------------------------------------------------| x2
A|-0--0--0--0-----0--0--0--0--0-----0--8--8--8--8-|-3--3--3--3-----3--3--3--3--3-----3--5--5--5--5--|
D|-0--0--0--0-----0--0--0--0--0-----0--8--8--8--8-|-3--3--3--3-----3--3--3--3--3-----3--5--5--5--5--|


[Chorus]

e|------------------------------------------------|-------------------------------------------------|
B|------------------------------------------------|-------------------------------------------------|
G|------------------------------------------------|-------------------------------------------------|
D|-10-12-12-12-0--0--10-12-12-12-0--0--10-12-12-0-|-8-----8--8--8--8--3--------0--3--0--3--5--5--5--| x4
A|-10-12-12-12-0--0--10-12-12-12-0--0--10-12-12-0-|-8-----8--8--8--8--3--------0--3--0--3--5--5--5--|
D|-10-12-12-12-0--0--10-12-12-12-0--0--10-12-12-0-|-8-----8--8--8--8--3--------0--3--0--3--5--5--5--|   
https://primanota.ru/filter/burn-it-chords.htm

Привет, гитарист!

Тебе подарок от сайта PrimaNota.ru

Забрать подарок
ВАМ ПОДАРКИ ОТ ПРОЕКТА
"ГИТАРНАЯ РЕВОЛЮЦИЯ"