Войти:  Facebook Google Twitter Vk Yandex Mail.ru
PrimaNota.ru - самый крупный в мире бесплатный архив песенных текстов, аккордов, табулатур и нот


Fernando Sor - Op 60 Study 1 - табы

Печатать
ViraMusic 2019 в Петербурге 4 апреля 2019! Скидка 10%!

Op 60 Study 1

  • аккорды, текст

Hopefully this will help the people in Mr. C's Guitar class and whoever else needs it. Here are 
measures 1-12. Again, I know that this is probably not perfect, but I'm just trying to help out the people who
have a test over this for CHS.

(THIS IS FROM THE ICELAND GUITAR SCHOOL)

[Measures 1-12]

e|-0---1---0-----|----------------|---------------|-----0---------|
B|-------------3-|-1---0---1---0--|-----1---0---3-|-1-------3-----|
G|-0---2---0-----|-------------0--|-2---2---0-----|-------------0-|
D|-------------3-|-2---0---2------|-3-----------3-|-2-------------|
A|-3-------------|----------------|---------------|-----3---2-----|
E|---------------|----------------|---------------|---------------|

e|-0---1---0-----|-------------0-|-----1---------|----------------|
B|-------------3-|-1---0---1-----|---------0---3-|-1--------------|
G|-0---2---0-----|---------------|-2-------0-----|-----0----------| Repeat from beginning
D|-------------3-|-2---0---2-----|-3---0-------3-|-2--------------| (Play twice in total)
A|-3-------------|-------------3-|---------------|----------3-----|
E|---------------|---------------|---------------|----------------|

e|-3-------1-----|-0-------------|---------------|---------0------|
B|---------------|---------1-----|-0-------3-----|-1--------------|
G|-----0-------0-|-----0-------0-|-----0-------0-|-----0-------0--|
D|---------0-----|---------2-----|-0-------3-----|-2--------------|
A|-2-------------|-3-------------|---------------|---------3------|
E|---------------|---------------|---------------|----------------|   
https://primanota.ru/fernando-sor/op-60-study-1-chords.htm

Привет, гитарист!

Тебе подарок от сайта PrimaNota.ru

Забрать подарок
ВАМ ПОДАРКИ ОТ ПРОЕКТА
"ГИТАРНАЯ РЕВОЛЮЦИЯ"