Войти:  Facebook Google Twitter Vk Yandex Mail.ru
PrimaNota.ru - самый крупный в мире бесплатный архив песенных текстов, аккордов, табулатур и нот


Fernando Sor - Etude No 4 Op 60 - табы

Печатать
ViraMusic 2019 в Петербурге 4 апреля 2019! Скидка 10%!

Etude No 4 Op 60

  • аккорды, текст

                            Etude No.4 op.60                             


                                                               Fernando Sor
                                                               
E||----------------|----------------|----------------|----------------|
B||---------0------|---------2------|---------0------|---------0------|
G||---------1------|---------2------|---------2------|---------1------|
D||----------------|----------------|---------1------|--2-------------|
A||----------------|--0-------------|--2-------------|----------------|
E||--0-------------|----------------|----------------|----------------|


                                                               
-----------------0--|--------------0-----|--------------2-----|
--------------0-----|-----------2-----2--|-----------0-----0--|
-----------1--------|--------2-----------|--------2-----------|
--------2-----------|-----2--------------|-----1--------------|
-----2--------------|--0-----------------|--2-----------------|
--0-----------------|--------------------|--------------------|


                                                              
---------0-------||------------------2--|-----0--------------|
-----------------||------4--2--0--4-----|--------2-----2-----|
---------1------*||*--------------------|-----------3--------|
---------2------*||*--4-----------------|--4--------------4--|
-----------------||---------------------|--------------------|
--0--------------||---------------------|--------------------|


                                                           
-----------------2--|--0---------------|--------2--2------|
--0--4-----0--4-----|-----2------------|-----0------------|
--------------------|--------3---------|------------------|
--------4-----------|-----------4------|--1---------------|
--------------------|------------------|------------------|
--------------------|------------------|------------------|


                                                                          
--------4--4------|-----------0--------|----------------|----------------|
-----0------------|--------2-----2-----|--0-------------|---------0------|
------------------|-----3-----------3--|----------------|---------1------|
--2---------------|--4-----------------|----------------|----------------|
------------------|--------------------|---------2------|----------------|
------------------|--------------------|----------------|--0-------------|


                                                                        
----------------|----------------|----------------|-----------------0--|
---------2------|---------0------|---------0------|--------------0-----|
---------2------|---------2------|---------1------|-----------1--------|
----------------|---------1------|--2-------------|--------2-----------|
--0-------------|--2-------------|----------------|-----2--------------|
----------------|----------------|----------------|--0-----------------|


                                                             
--------------0-----|--------------2-----|---------0-------||
-----------2-----2--|-----------0-----0--|-----------------||
--------2-----------|--------2-----------|---------1------*||
-----2--------------|-----1--------------|---------2------*||
--0-----------------|--2-----------------|-----------------||
--------------------|--------------------|--0--------------||


Transcribed by Martin Altenbeck
MartinAltenbeck@web.de

______________________________________________________________________________
        
https://primanota.ru/fernando-sor/etude-no-4-op-60-chords.htm

Привет, гитарист!

Тебе подарок от сайта PrimaNota.ru

Забрать подарок
ВАМ ПОДАРКИ ОТ ПРОЕКТА
"ГИТАРНАЯ РЕВОЛЮЦИЯ"