Войти:  Facebook Google Twitter Vk Yandex Mail.ru
PrimaNota.ru - самый крупный в мире бесплатный архив песенных текстов, аккордов, табулатур и нот


Fernando Sor - Opus 60 Nr 1 - табы

Печатать
ViraMusic 2019 в Петербурге 4 апреля 2019! Скидка 10%!

Opus 60 Nr 1

  • аккорды, текст

-------------------------------------------------------------------------------
       Etude/Etüde/Studi Nr.1 - Fernando Sor Opus 60(Studi preparatori)
-------------------------------------------------------------------------------
Tabbed by: SmoothPlaying
E-mail: robin1@vr-web.de
Guitar: Acoustic
Plektrum: No
Difficult: Beginner(you should have at least 1/2 year of playing experience)
Style: ordely, I mean the piece is not to interpretate on
Finger style: alternate: index --> middle --> index --> middle (with exceptions in the tabs)

Tuning: Standart


                                                       p     p p

e|---------------------0-3-1-0---------------0-----------2-3-------|
B|-1---0---1---0---1-3---------3---1---0---1---3-0---1-------0-----|
G|-------0-------0---------------0-------0---------2---------0-----|
D|-----------------------------------------------------0-----0-----|
A|-----------------------------------------------------------------|
E|-------------------------------------------------------------3---|


     p       p       p           p p     p p   p p p   p p p   p

e|-3---0-3-1-----1-0-----0-----------------------------------0-----|
B|-------------3-------1---3-0---------1---------------------1-----|
G|---0-------0-------0---------0-----0-------2-------0-------0-----|
D|-------------------------------3-2-----2-3---0-3-2---------------|
A|-------------------------------------------------------2-3---3---|
E|-----------------------------------------------------3-----------|


p = thumb
i = index finger
m = middle finger
a = ring finger

PS: This one is only created for the members who didn't bought the Tab Pro status, because such an
    simple tabs doesn't require tab pro.
PPS: This song(rather all Op.60 songs) is the key to all higher guitar techniques.   
Другие материалы по этой песне:
  • Аккорды, текст

https://primanota.ru/fernando-sor/opus-60-nr-1-chords.htm

Привет, гитарист!

Тебе подарок от сайта PrimaNota.ru

Забрать подарок
ВАМ ПОДАРКИ ОТ ПРОЕКТА
"ГИТАРНАЯ РЕВОЛЮЦИЯ"