Войти:  Facebook Google Twitter Vk Yandex Mail.ru
PrimaNota.ru - самый крупный в мире бесплатный архив песенных текстов, аккордов, табулатур и нот


Fernando Sor - Etude No 5 Op 60 - табы

Печатать
ViraMusic 2019 в Петербурге 4 апреля 2019! Скидка 10%!

Etude No 5 Op 60

  • аккорды, текст

                            Etude No.5 op.60                             


                                                               Fernando Sor
                                                               
E||-----------||------3--2--1--|--0--------0--|-----0--------|
B||--------3--||---0-----------|-----1--------|--3-----3--1--|
G||-----------||*--0-----------|--------2--0--|--------------|
D||-----------||*--------------|--------------|--4-----------|
A||-----------||---------------|--------------|--------------|
E||-----------||---------------|--------------|--------------|


                                                            
--------------|-----3--0-----|--------------|--------0-----|
--0--------3--|--0--------3--|--2--------2--|--3--4-----2--|
--0-----0-----|--0-----------|-----3--2--0--|--------0--2--|
-----0--------|--------------|--------------|--4-----------|
--------------|--------------|--------------|--------------|
--------------|--------------|--------------|--------------|


                                                               
---------------||------0--1--2--|--3--5--6--7--|--8--5--7--3--|
--3--------3---||---4-----------|--------------|--------------|
-----2--------*||*--------------|--------------|--------------|
--0-----0-----*||*--0-----------|--0-----------|--0-----0-----|
---------------||---------------|--------------|--------------|
---------------||---------------|--------------|--------------|


                                                                        
--2--5--------|------------------|------------------|------------------|
--------3-----|----3---3---3---3-|----3---3---3---3-|----3---3---3---3-|
--------------|------------------|--0---2---3---4---|--5---2---4---0---|
--0--------0--|--1---2---3---4---|------------------|------------------|
--------------|------------------|------------------|------------------|
--------------|------------------|------------------|------------------|


                                                              
----------------|-----3--2--1--|--0--5--4--3--|--2-----0--2--|
----3---3----3--|--0-----------|--------------|-----3--2--1--|
------2---------|--0-----------|--------------|--------------|
--4-------0-----|--------------|--------------|--0-----------|
----------------|--------------|--3-----------|--------------|
----------------|--------------|--------------|--------------|


                                                               
--3--5--7-----|--------0--2--|--3-----0-----|-----------------|
--0-----------|--1--3--------|-----------1--|--0---3----1-----|
-----2--0--0--|--------------|-----0-----2--|----0--------2---|
-----------3--|--2--0--------|--------------|--0------0-----4-|
--------------|--------4--3--|--2-----3-----|-----------------|
--------------|--------------|--------------|-----------------|


                
--------------||
--------------||
--0----------*||
-------0-----*||
--------------||
----------3---||


Transcribed by Martin Altenbeck
MartinAltenbeck@web.de

______________________________________________________________________________
        
Другие материалы по этой песне:
  • Аккорды, текст

https://primanota.ru/fernando-sor/etude-no-5-op-60-chords.htm

Привет, гитарист!

Тебе подарок от сайта PrimaNota.ru

Забрать подарок
ВАМ ПОДАРКИ ОТ ПРОЕКТА
"ГИТАРНАЯ РЕВОЛЮЦИЯ"