Войти:  Facebook Google Twitter Vk Yandex Mail.ru
PrimaNota.ru - самый крупный в мире бесплатный архив песенных текстов, аккордов, табулатур и нот


Fernando Sor - Estudio 6 From The Segovia Book - табы

Печатать
ViraMusic 2019 в Петербурге 4 апреля 2019! Скидка 10%!

Estudio 6 From The Segovia Book

  • аккорды, текст

(Dont forget to emphasis the upper melody of this piece and mute the proper open notes for the bass at the
right time)


                        bar 2---------------------|
e|----|-2-----2-0-----0-|----------2--------------|---------0-------|------|
B|----|-----------------|-3-----------------------|-0-----0-------3-|------|
G|--2-|-----2-------0---|-------------2--------2--|-----0-----------|------|
D|----|---0-------------|-------4----------4------|-------------2---|------|
A|----|-----------0-----|---5-----------5---------|-----------------|------|
E|----|-----------------|-------------------------|---3-------4-----|------|


  
e|----------0------|-2-----2-0-----0-|-----------------|-0-------------0-|------|
B|-3-----2---------|-----------------|-3-----3-4-----4-|-------0-2-------|------|
G|---------------2-|-----2-------0---|-----------------|-----0-------0---|------|
D|-----2-------2---|---0-------------|-----4-------4---|-----2-------2---|------|
A|---0-------0-----|-----------0-----|---2-------0-----|-----------0-----|------|
E|-----------------|-----------------|-----------------|---3-------------|------|


  bar2----------------------------------------|
e|---------------2-|-----------------|-----------------|---------------0-|------|
B|-3---------------|-5-----5-4-----4-|-5-----5-2-----2-|-3-----3-0-------|------|
G|-----2-----------|-----2-------2---|-----2-------2---|-------------1---|------|
D|-4-----4---------|-----------------|-----------------|-----4-----2-----|------|
A|---5-----5-------|---4-------3-----|---4-------0-----|---2-------------|------|
E|-----------------|-----------------|-----------------|-----------------|------|


e|---------------0-|-0-----0-1-----0-|-2-----2---------|-----------------|------|
B|-3-------3-------|-----------------|---------0-----1-|-2-----2-3---0-0-|------|
G|-----1---2-------|-----2-------2---|-----2-------2---|-----2---------1-|------|
D|---2---2---2-----|-----------------|---0-------1-----|---2-------2-----|------|
A|-------------0---|---4-------4-----|-----------------|-----------------|------|
E|-----------------|-----------------|-----------------|---------0-------|------|


  bar2----|
e|------------------|-------------------|---------2-----2-|-3-----3---------|---|
B|-2-------------10-|-10-----10-1-----1-|-0-----0---------|-----------------|---|
G|---2--------------|---------------2---|-----2-------2---|-----0---3---0-3-|---|
D|-----2------------|------7------2-----|---1-------1-----|---2-------0-----|---|
A|-0-----4-0--------|----9--------------|-----------------|-----------------|---|
E|------------------|-------------------|-----------------|-----------------|---|


e|---------0-----0-|-1-------------0-|-------0-1-----0-|---------0-----0-|------|
B|-----------------|-------3-2-------|-3---------------|-3-----3---------|------|
G|-2-----2-----0---|-------------0---|-----2-------2---|-----2-------1---|------|
D|-----5-----------|---0-3-----2-----|---3-------0-----|-----------------|------|
A|---4-------4-----|-----------------|-----------------|---1-------1-----|------|
E|-----------------|-----------------|-----------------|-----------------|------|

                                     bar2-------------|
e|-----------------|-2-----2-0-----0-|-------2---------|---------0-------|------|
B|-2---------------|-----------------|-3-------------3-|-0-----0-------3-|------|
G|-----2---------2-|-----2-------0---|---------2-------|-----0-----------|------|
D|-------2---2-----|---0-------------|-----4-------4---|-------------2---|------|
A|---0-----4---0---|-----------0-----|---5-------5-----|-----------------|------|
E|-----------------|-----------------|-----------------|---3-------4-----|------|

                          
e|---------0-------|-2-----3p2-0---------|---------0-----2-0---|---------------|
B|-3-----2---------|-----------------7p5-|-------0-----0-------|3----3-2-----2-|
G|---------------2-|-----2---------0-----|-7-------0-----------|---2-------0---|
D|-----2-------2---|---0-----------------|-----4---------------|---4-------2---|
A|---0-------0-----|---------------------|---------------------|-0-------0-----|
E|-----------------|-------------6-------|---7-------0-3-------|---------------|


e|-----------|
B|-3---------|
G|-----2-----|
D|-4-----4---|
A|---5-----5-|
E|-----------|



**************
|p   Pull-off
**************   
Другие композиции этого автора:
Другие материалы по этой песне:
  • Аккорды, текст

https://primanota.ru/fernando-sor/estudio-6-from-segovia-book-chords.htm

Привет, гитарист!

Тебе подарок от сайта PrimaNota.ru

Забрать подарок
ВАМ ПОДАРКИ ОТ ПРОЕКТА
"ГИТАРНАЯ РЕВОЛЮЦИЯ"