Войти:  Facebook Google Twitter Vk Yandex Mail.ru
PrimaNota.ru - самый крупный в мире бесплатный архив песенных текстов, аккордов, табулатур и нот


Charles Mingus - Better Git It In Your Soul - бас-таба

Печатать
ViraMusic 2019 в Петербурге 4 апреля 2019! Скидка 10%!

Better Git It In Your Soul

  • аккорды, текст
  • ноты

Авторы музыки: Charles Mingus

                                  Better Git It In Your Soul
                                        Charles Mingus
 
Bass                                                                     Charles Mingus

In 6/8

Intro
                                                    3/8
G|---------------|---------------|---------4b-4-3-|-1-----|
D|-3-3-3-3-6b----|-3-3-3-3-6b----|-3-3-3-3--------|---3-1-|
A|---------------|---------------|----------------|-------|
E|---------------|---------------|----------------|-------|
   S S E E Q.      S S E E Q.      S S E E E E E    E E E

   6/8
G|-------------|-------------|-------3b4r3-|-3-----------|-3---3-4-3-----|-----0-1-----|
D|-3---3-6-----|-6---3-6-----|---3-6-------|-----------3-|-----------4-0-|-3-4-----3-1-|
A|-------------|-------------|-------------|-------------|---------------|-------------|
E|-------------|-------------|-------------|-------------|---------------|-------------|
   Q   E Q.      Q   E Q.      E E E E E E   E E Q   E E   Q   E S S E E   E E E E E E

G|-------------|-------------|
D|-3---3-6-3-0-|-3---------5-|
A|-------------|-------------|
E|-------------|-------------|
   Q   E E E E   E E Q   E E

Head

[A] (First Time)

   F7            Bb7           F7            Bb7           F7            Bb7
G|-------------|-------------|-------------|-------------|-------------|-------------|
D|-3-----3-----|-------3-----|-3-----3-----|-------3-----|-3-----3-----|-----0-3-----|
A|-------------|-1-----------|-------------|-1-----------|-------------|-1-----------|
E|-------------|-------------|-------------|-------------|-------------|-------------|
   E Q   Q.      Q.    E Q     Q.    Q.      Q.    Q   E   Q.    Q.      Q   E E Q

   Gm7           C11           F7            Gm7   C7
G|-------------|-------------|-------------|-------------|
D|-5-----------|-------------|-3-----------|-5---------5-|
A|-------3-----|-3-----5-----|-------3---5-|-----5-3-----|
E|-------------|-------------|-------------|-------------|
   Q.    Q.      Q.    Q.      E Q   Q   E   Q   E Q   E

[A] (Second Time)

   F7            Bb7           F7            Bb7           F7            Bb7
G|-------------|-------------|-------------|-------------|-------------|-------------|
D|-3-----3-----|-----0-3-----|-3-----3-----|-------3---5-|-3-----5-----|-3-----------|
A|-------------|-3-----------|-------------|-1-----------|-------------|-------1-----|
E|-------------|-------------|-------------|-------------|-------------|-------------|
   E Q   Q.      Q   E E Q     Q.    Q.      E E E Q   E   Q.    Q.      E     Q. 

   Gm7           C11           F7            Gm7   C7
G|-------------|-------------|-------------|-------------|
D|-5-----3-----|-------3---5-|-3-----------|-3-----3---5-|
A|-------------|-3-----------|-------3---5-|-------------|
E|-------------|-------------|-------------|-------------|
   Q.    Q.      Q.    Q   E   E Q   Q   E   Q.    Q   E

[B]

   Bb7           F7            Bb7           F7            Bb7           F7
G|-3-----3---5-|-------------|-------3---5-|-------------|-3---------3-|-3-----------|
D|-------------|-3-----------|-3-----------|-3-----------|-------3-----|-----------3-|
A|-------------|-------3-----|-------------|-------3-----|-------------|-------3-3---|
E|-------------|-------------|-------------|-------------|-------------|-------------|
   Q.    Q   E   Q.    Q.      Q.    Q   E   Q.    Q.      Q.    Q   E   Q.    E.S E

   Gm7           C7
G|-------------|---------5-5-|
D|-5-----------|-5-----------|
A|-------5-----|-------3-----|
E|-------------|-------------|
   Q.    Q.      Q.    E.S E

[A] (Third Time)

   F7            Bb7           F7            Bb7           F7            Bb7
G|-------------|-------------|-------------|-------------|-------------|-------------|
D|-3-----3-----|-3-----------|-3-----3-----|-------3-----|-3-----3-----|-------5-----|
A|-------------|-------1-----|-------------|-1-----------|---------1---|-------------|
E|-------------|-------------|-------------|-------------|-------------|-------------|
   E Q   Q.      Q.    Q.      Q.    Q.      Q.    Q.      Q.    E Q     Q.    E E E

   Gm7           C11           F7
G|-------------|-------------|-------------|-------------|
D|-5-----------|-------------|-3---------5-|-3-----6-8-6-|
A|-------3-----|-3-----3-----|-------3-----|-------------|
E|-------------|-------------|-------------|-------------|
   Q.    Q.      E Q   Q.      E Q   Q   E   Q.    E E E

Sax Solo

   F7                                                        Bb7
G|-------------|-------2-2-2---|-------------|-2-------2---|-------------|-1---0-------|
D|-3---------5-|-3---3-------0-|-------3-----|---3---3---0-|-----0-3---5-|-------0-5-0-|
A|-------3-----|---------------|-3-----------|-----3-------|-1-----------|-------------|
E|-------------|---------------|-------------|-------------|-------------|-------------|
   Q.    Q   E   Q   E S S E E   Q.    Q.      E E E E E E   Q   E Q   E   Q   E E E E

   F7                          C7            Bb7             F7
G|-------------|-------------|-------------|---------------|-------------|-------------|
D|-3---3-6---0-|-3---3-6---6-|-5---------5-|-5-5-5-------5-|-3-----------|-----0-3-6-5-|
A|-------------|-------------|-----5-3-----|-------5-3-----|-----0-1---2-|-3-----------|
E|-------------|-------------|-------------|---------------|-------------|-------------|
   Q   E Q   E   Q   E Q   E   Q   E Q   E   S S E E Q   E   E E E Q   E   E E E E E E

   F7                                                      Bb7
G|-------------|-------------|-------------|---5-3-------|-----------1-|-3-----------|
D|-3-5-6-3-0-5-|-------5-3-5-|-3-5-6-3---5-|-3-----3-5-0-|---0-5-3-5---|---5-3-0---5-|
A|-------------|-5-3-5-------|---------5---|-------------|-1-----------|---------1---|
E|-------------|-------------|-------------|-------------|-------------|-------------|
   E E E E E E   E E E E E E   E E E E E E   E E E E E E   E E E E E E   E E E E E E

   F7                          Gm7           C7            F7
G|-2-5-6-7-6-5-|-2-----------|---------3-5-|-7-5---------|-----2-------|-------------|
D|-------------|---5-3-0-3-3-|-5-----5-----|-----5-----5-|-3-5---5-3-0-|---3-5-3-5-0-|
A|-------------|-------------|---5-3-------|-------5-3---|-------------|-3-----------|
E|-------------|-------------|-------------|-------------|-------------|-------------|
   E E E E E E   E E E E E E   E E E E E E   E E E E E E   E E E E E E   E E E E E E

   F7                                                      Bb7
G|-------------|-----5-5-----|-------------|-------------|-------0-1-2-|-3-2-1-0-----|
D|-3-5-6-3-0---|-3-------3-0-|-----5-3-6-5-|-3-3-6-6-5-0-|---0-3-------|---------3-0-|
A|-----------3-|---3---------|-3-5---------|-------------|-1-----------|-------------|
E|-------------|-------------|-------------|-------------|-------------|-------------|
   E E E E E E   E E E E E E   E E E E E E   E E E E E E   E E E E E E   E E E E E E

   F7                          Gm7           C7              F7
G|---------5-7-|-6-5---------|---------5-5-|---5-----------|---0-1-2-----|-------------|
D|-3-6-7-8-----|-----7-0-3-6-|-5-----5-----|-----5-0-----5-|-3-------3-0-|-5-3-5-----5-|
A|-------------|-------------|---5-3-------|---------3-5---|-------------|-------5-3---|
E|-------------|-------------|-------------|---------------|-------------|-------------|
   E E E E E E   E E E E E E   E E E E E E   S S E E E E E   E E E E E E   E E E E E E

Piano Break

   F7                                                      Bb7
G|-------------|-------------|-------------|-------------|-------------|-------------|
D|-3-5-6-3-0-0-|-3---6-3---0-|-3---6-3---0-|-3---6-7---0-|-----5-3---5-|-3-----0---5-|
A|-------------|-------------|-------------|-------------|-1-----------|-----1-------|
E|-------------|-------------|-------------|-------------|-------------|-------------|
   E E E E E E   Q   E Q   E   Q   E Q   E   Q   E Q   E   Q   E Q   E   Q   E Q   E 

   F7                          Gm7           C7            F7
G|-------------|-----------5-|-7---5-------|-------5-2-----|----10-8---5-|-------------|
D|-3---3-6---0-|-3---3-6-----|-------7---5-|-----5-----0---|-------------|-0---------5-|
A|-------------|-------------|-------------|-3-------------|-8-----------|-----0-3-----|
E|-------------|-------------|-------------|---------------|-------------|-------------|
   Q   E Q   E   Q   E Q   E   Q   E Q   E   Q   E S S E E   Q   E Q   E   Q   E Q   E

   F7                                                      Bb7
G|-------------|-------------|-------------|-------------|-------------|-------------|
D|-3-3-5-3-0-5-|-3-5-6-3-5-0-|-3-5-6-7-5-0-|-3-5-0-3-5-0-|---0-5-3-0-5-|-3-0---0-3-6-|
A|-------------|-------------|-------------|-------------|-1-----------|-----1-------|
E|-------------|-------------|-------------|-------------|-------------|-------------|
   S E.E E E E   E E E E E E   E E E E E E   E E E E E E   E E E E E E   E E E E E E

   F7                          Gm7           C7            F7
G|-------------|-----------3-|-------3-3-4-|-7-6-5-------|-------------|-------------|
D|-5-0---0-3-5-|-6-3-0-3-6---|-5---5-------|-------7-5-0-|-3-5-6-7-3-5-|-------5-3-5-|
A|-----3-------|-------------|---5---------|-------------|-------------|-5-3-5-------|
E|-------------|-------------|-------------|-------------|-------------|-------------|
   E E E E E E   E E E E E E   E E E E E E   E E E E E E   E E E E E E   E E E E E E

Sax Solo 2

   F7                                                      Bb7
G|-------------|-------------|---------------|-------------|---------5-3-|-------------|
D|-3-5-0-3-5-0-|-3-5-0-3-5-0-|-3-5-0-5-6-5-0-|-5-----3-5-0-|---0-5-3-----|-3-5-0---3-5-|
A|-------------|-------------|---------------|---5-3-------|-1-----------|-------1-----|
E|-------------|-------------|---------------|-------------|-------------|-------------|
   E E E E E E   E E E E E E   E E E S S E E   E E E E E E   E E E E E E   E E E E E E

   F7                          Gm7           C7            F7
G|---2-5-7-6-5-|-2-----------|-------------|---5-7-------|-------------|-------------|
D|-3-----------|---0-3-3-7-7-|-3-5-0-----5-|-5---------5-|-3-5-0-----5-|-3-5-6-7-5-0-|
A|-------------|-------------|-------3-5---|-------5-3---|-------3-5---|-------------|
E|-------------|-------------|-------------|-------------|-------------|-------------|
   E E E E E E   E E E E E E   E E E E E E   E E E E E E   E E E E E E   E E E E E E

Piano Break

   F7                                                      Bb7
G|-------------|-------3-2-1-0-|-------------|-------5-----|---------0-12|---0---------|
D|-3-5-0-----5-|-3-6-7---------|-3-5-6-7-5-0-|---5-3---5-0-|---0-5-3-----|-8---0---5-3-|
A|-------3-5---|---------------|-------------|-3-----------|-1-----------|-------3-----|
E|-------------|---------------|-------------|-------------|-------------|-------------|
   E E E E E E   E E E S S S E.  E E E E E E   E E E E E E   E E E E E E   E E E E E E

   F7                          Gm7           C7            F7
G|---2-5-2-0---|-------------|-----------7-|-7-5---------|-------------|-------------|
D|-3---------0-|---5-0-----5-|-5-6-7-7-8---|-----7-5-0---|---5-0-5-3-5-|-6-3-0-5-3-5-|
A|-------------|-3-----3-5---|-------------|-----------3-|-3-----------|-------------|
E|-------------|-------------|-------------|-------------|-------------|-------------|
   E E E E E E   E E E E E E   E E E E E E   E E E E E E   E E E E E E   E E E E E E

Horn Break

   F7                                                      Bb7
G|-------------|-----0-1-----|-------------|-------------|-------------|-------------|
D|-3---3-5-6-5-|-3-0-----0-5-|-3-3-0-6-5-0-|-3-0-5-3-5-0-|---0-5-3-0-5-|-3-0---0-5-0-|
A|-------------|-------------|-------------|-------------|-1-----------|-----1-------|
E|-------------|-------------|-------------|-------------|-------------|-------------|
   Q   E E E E   E E E E E E   E E E E E E   E E E E E E   E E E E E E   E E E E E E

   F7                          Gm7           C7            F7
G|---1-2-------|-------------|-------7-7-10|-0---0-------|-------------|-------------|
D|-3-----3-0-5-|-3-3-0-------|-5-7-8-------|---0---0---5-|-3-5-6-7-0-5-|-3-0-5-3-5-0-|
A|-------------|-------3-5-5-|-------------|---------3---|-------------|-------------|
E|-------------|-------------|-------------|-------------|-------------|-------------|
   E E E E E E   E E E E E E   E E E E E E   E E E E E E   E E E E E E   E E E E E E

Piano Solo

   F7                                                              Bb7
G|-------------|-------------|-----------------|-----------------|-----------------|
D|-3---3-------|-3---3-6---3-|-3-3-3-3-3-3-3-3-|-3-3-3-3-3-3-3-3-|-3-3-3-3-3-3-3-3-|
A|-------0-3-5-|-------------|-----------------|-----------------|-----------------|
E|-------------|-------------|-----------------|-----------------|-----------------|
   Q   E E E E   Q   E Q   E   S E S E S E S E   S E S E S E S E   S E S E S E S E

                     F7                                Gm7               C7
G|-----------------|-----------------|---------------|-----------------|-----------------|
D|-3-3-3-3-3-3-3-3-|-3-3-3-3-3-3-3-3-|-3-3-3-3---3-3-|-3-3-3-3-3-3-3-3-|-3-3-3-3-3-3-3-3-|
A|-----------------|-----------------|---------------|-----------------|-----------------|
E|-----------------|-----------------|---------------|-----------------|-----------------|
   S E S E S E S E   S E S E S E S E   S E S E E E E   S E S E S E S E   S E S E S E S E 

G|-----------------|---------------|
D|-3-3-3-3-3-3-3-3-|-3-3-3-3-3-----|
A|-----------------|---------------|
E|-----------------|---------------|
   S E S E S E S E   S E S E Q.

Sax Solo 3

24 Bars Rest

   F7                                                      Bb7
G|-------------|-------------|-------------|-------------|-3-1-0-------|-------1-----|
D|-3-5-6-3-5-0-|---0-1-2-3-5-|-3-5-6-7-5-0-|---0-1-2-3-5-|-------0-----|-0-1-3---5-0-|
A|-------------|-3-----------|-------------|-3-----------|---------1-3-|-------------|
E|-------------|-------------|-------------|-------------|-------------|-------------|
   E E E E E E   E E E E E E   E E E E E E   E E E E E E   E E E E E E   E E E E E E

   F7                          Gm7           C7            F7
G|-------------|-------------|---------7-6-|-5-3-0-------|-------------|-------------|
D|-3-5-6-3-5-0-|-----5-3-6-5-|-5-----5-----|-------0-5-0-|-3-5-6-3-5-0-|-5-0-5-3-5-0-|
A|-------------|-3-5---------|---5-3-------|-------------|-------------|-------------|
E|-------------|-------------|-------------|-------------|-------------|-------------|
   E E E E E E   E E E E E E   E E E E E E   E E E E E E   E E E E E E   E E E E E E

   F7                                                      Bb7
G|-----5-7-6-5-|-------------|-------5-----|---------5-4-|-------------|-3-0---------|
D|-3-6---------|-6-5-0---5-0-|-5-0-3---3-5-|-3---5-3-----|---0-3-3-4-5-|-----0---5-0-|
A|-------------|-------3-----|-------------|---3---------|-1-----------|-------3-----|
E|-------------|-------------|-------------|-------------|-------------|-------------|
   E E E E E E   E E E E E E   E E E E E E   E E E E E E   E E E E E E   E E E E E E

   F7                          Gm7           C7            F7
G|-----5-7-6-5-|-------------|-------------|-------5-----|-------------|-------------|
D|-3-6---------|-6-5-3-6-3-3-|-----0-1-3-5-|-5-------5-0-|-5-----0-5-3-|-6-3-5-3-5-3-|
A|-------------|-------------|---1---------|---5-3-------|---5-3-------|-------------|
E|-------------|-------------|-3-----------|-------------|-------------|-------------|
   E E E E E E   E E E E E E   E E E E E E   E E E E E E   E E E E E E   E E E E E E

Drum Solo 1

G|-------------|-------------|
D|-3-----------|-6b----------|
A|-------------|---------1---|
E|-------------|-------------|
   E E H         Q.    E Q

12 Bars Rest

Horn Break 2/Sax Solo 4/Drum Solo 2/Horn Break 3/Drum Solo 3

60 Bars Rest

Head 2

[A] (First Time)

   F7            Bb7           F7/Bb         Bb7           F7/Bb         Bb7
G|-------------|-------------|-------------|-------------|-------------|-------------|
D|-3-----3-----|-------3-----|-------3-----|-------3-----|-------3-----|-----0-3---5-|
A|-------------|-1-----------|-1-----------|-1-----------|-1-----------|-1-----------|
E|-------------|-------------|-------------|-------------|-------------|-------------|
   E Q   Q.      Q.    E Q     Q.    Q.      Q.    Q   E   Q.    Q.      Q   E Q   E

   Gm7           C11           F7            Gm7   C7
G|-------------|-5-----------|-------------|-------------|
D|-5-----------|-------5---0-|-3-----3-----|-3-----3-5---|
A|-------3-----|-------------|-------------|-------------|
E|-------------|-------------|-------------|-------------|
   Q.    Q.      Q.    Q   E   E Q   E Q     E Q   E Q

[A] (Second Time)

   F7            Bb7           F7            Bb7           F7            Bb7/F
G|-------------|-------------|-------------|-------------|-------------|-------------|
D|-3---------3-|-------0-----|-3---------3-|-------5-----|-3---------0-|-3-----3-----|
A|-------3-----|-1-----------|-------3-----|-1-----------|-------1-----|-------------|
E|-------------|-------------|-------------|-------------|-------------|-------------|
   E Q   Q   E   Q.    Q.      Q.    Q   E   Q.    E E E   Q   E Q.  E   Q.    Q. 

   Gm7           C11           F7            Gm7   C7
G|-------------|-------------|-------------|-------------|
D|-5-----3-----|-3-----3---5-|-3-----3-----|-----------3-|
A|-------------|-------------|-----------5-|-3-----------|
E|-------------|-------------|-------------|-------------|
   Q.    Q.      Q.    Q   E   E Q   Q   E   Q.    Q   E

[B]

   Bb7           F7/Bb         Bb7           F7/Bb         Bb7           F7
G|-3-----------|-3---3-------|-3-----------|-3-----3-----|-3---------3-|-5-----------|
D|-------3-----|-------------|-------3-----|-------------|-------3-----|-------3-----|
A|-------------|-------------|-------------|-------------|-------------|-------------|
E|-------------|-------------|-------------|-------------|-------------|-------------|
   Q.    Q.      Q   E Q.      Q.    Q.      Q.    Q.      Q.    Q   E   Q.    Q.   

   Gm7           C7
G|-------------|-------------|
D|-5-----5-----|-------5-----|
A|-------------|-3-----------|
E|-------------|-------------|
   Q.    Q.      Q.    Q.   

[A] (Third Time)

   F7            Bb7           F7            Bb7           F7            Bb7/F
G|-------------|-------------|-------------|-------------|-------------|-------------|
D|-3-----3-----|-------3-----|-3-----3-----|-------3-----|-3-----3-----|-3-----5-----|
A|-------------|-1-----------|-------------|-1-----------|-------------|-------------|
E|-------------|-------------|-------------|-------------|-------------|-------------|
   E Q   E Q     Q.    Q.      Q.    Q.      Q.    Q.      Q.    Q.      Q.    Q.

G|-------------|-------------|
D|-------------|-------------|
A|-------------|-------------|
E|-------------|-------------|
   Q.    Q.      Q.    Q.
   Slow.....................

Outro

G|-------------|-3-----------|-5-3-5-3-5---|-------------|-------------|-------------||
D|---3---------|-------------|-------------|-3-----------|-1-----------|-3-----------||
A|-------------|-------------|-------------|-------------|-------------|-------------||
E|-------------|-------------|-------------|-------------|-------------|-------------||
   E Q   Q.      H.            E E E E Q     H.            H.            H.
   Slow.............................................................................


Key to rhythm notations:

W - Whole Note/Semi-Brieve
H - Half Note/Minim
Q - Quarter Note/Crotchet       Q. - Dotted Quarter Note
E - Eight Note/Quaver           E. - Dotted Eight Note
S - Sixteenth Note/Semi-Quaver  S. - Dotted Sixteenth Note   
Другие материалы по этой песне:

https://primanota.ru/charles-mingus/better-git-it-in-your-soul-chords.htm

Привет, гитарист!

Тебе подарок от сайта PrimaNota.ru

Забрать подарок
ВАМ ПОДАРКИ ОТ ПРОЕКТА
"ГИТАРНАЯ РЕВОЛЮЦИЯ"